Oops, an error
Loading. Please wait.
We have Chord Pro version of Final Masquerade.
It's the closest thing you can get to the original song and it has interactive parts. Check out the tab »
×

Final Masquerade tab

64 views 3 this week
no commentswrite comment
1 2 3 4 5
3 more votes to show rating
add to favorites
×
Save as Personal and add changes to this tab that will be seen only by you. Learn more ›
×
You can save this tab as Personal to edit and correct it or add notes. All changes will be seen only by you. Learn more »
launch autoscroll
font size
0
reset
how to read this tab
guitar tuner
edit
Autoscroll
slow
fast
+/-
esc
set tempo
stop
About this tab version
Complete tab for lead and rhythm guitars. Was this info helpful? Yes No
Guitar 1
(Lead Guitar)

[Verse 1] 
(Starts at 0:29)
E|------------------------------------------------------------------|
B|------------------------------------------------------------------|
G|------------------------------------------------------------------|
D|---------------------------------5-5-5-5-5-5-5-5-5-5-5-5-5-5-5-5--|
A|-3-3-3-3-3-3-3-3-3-3-3-3-6-6-6-6----------------------------------|
D|------------------------------------------------------------------|
   . . . . . . . . . . . . . . . . . . . . . . . . . . . . . . . .

E|------------------------------------------------------------------|
B|------------------------------------------------------------------|
G|------------------------------------------------------------------|
D|-3-3-3-3-3-3-3-3-3-3-3-3-3-3-3-3-5-5-5-5-5-5-5-5-5-5-5-5-5-5-5-5--|
A|------------------------------------------------------------------|
D|------------------------------------------------------------------|
   . . . . . . . . . . . . . .   

[Chorus 1]
E|------------------------------------------------------------|
B|----6--------------------------------8--8--8--8--8--8-------|
G|-8-----8--7--5--5--5--5--5--5--8--8--------------------8--8-|
D|------------------------------------------------------------|
A|------------------------------------------------------------|
D|------------------------------------------------------------|

E|--------------------------------------------------------|
B|--------------------------------------------------------|
G|-7--7--7--7--7--7--7--7--8--8--8--8--8-8-10-10-8-8-7-7--|
D|--------------------------------------------------------|
A|--------------------------------------------------------|
D|--------------------------------------------------------|

[Pre-Verse]
E|------------------------------------------------------------------------------|
B|---------------------------------------------8-8-8-8-8-8-8-8-8-8-8-8----------|
G|-------------------------------------8-8-8-8-------------------------8-8-7-7--|
D|-10-10-10-10-10-10-10-10-10-10-10-10------------------------------------------|
A|------------------------------------------------------------------------------|
D|------------------------------------------------------------------------------|

E|------------------------------------------------------------------------------|
B|---------------------------------------------8-8-8-8-8-8-8-8-8-8-8-8-8-8-8-8--|
G|-------------------------------------8-8-8-8----------------------------------|
D|-10-10-10-10-10-10-10-10-10-10-10-10------------------------------------------|
A|------------------------------------------------------------------------------|
D|------------------------------------------------------------------------------|

[Verse 2]
(No guitar)

[Pre-Chorus]
E|------------------------------------------------------------------|
B|------------------------------------------------------------------|
G|------------------------------------------------------------------|
D|---------------------------------5-5-5-5-5-5-5-5-5-5-5-5-5-5-5-5--|
A|-3-3-3-3-3-3-3-3-3-3-3-3-6-6-6-6----------------------------------|
D|------------------------------------------------------------------|
   . . . . . . . . . . . . . . . . . . . . . . . . . . . . . . . .

E|------------------------------------------------------------------|
B|-----------------------------------------------------8-8-8-8-8-8--|
G|------------------------------------------------------------------|
D|-3-3-3-3-3-3-3-3-3-3-3-3-3-3-3-3----------------------------------|
A|------------------------------------------------------------------|
D|---------------------------------5-5-5-5-5-5-5-5-5-5--------------|
   . . . . . . . . . . . . . . . . . . . . . . . . . .    

[Chorus 2]
E|------------------------------------------------------------------------------|
B|---------------------------------------------8-8-8-8-8-8-8-8-8-8-8-8----------|
G|-------------------------------------8-8-8-8-------------------------8-8-8-8--|\
D|-10-10-10-10-10-10-10-10-10-10-10-10------------------------------------------| \
A|------------------------------------------------------------------------------|  \
D|------------------------------------------------------------------------------|   \
                                                                                    / (x3)
E|----------------------------------------------------------------------|          /
B|----------------------------------------------------------------------|         /
G|-7-7-7-7-7-7-7-7-7-7-7-7-7-7-7-7-8-8-8-8-8-8-8-8-8-8-8-10-10-8-8-7-7--|        /
D|----------------------------------------------------------------------|       /
A|----------------------------------------------------------------------|
D|----------------------------------------------------------------------|

[Interlude/Solo]
E|-----------------------------6-6-6-6-----------------6-6-6-6-------------------|
B|-------------------------------------8-8-8-8-8-8-8-8---------------------------|
G|-------------7-7-7-7-8-8-8-8---------------------------------8-8-8-8-7-7-7-7---|
D|-10-10-10-10-------------------------------------------------------------------|
A|-------------------------------------------------------------------------------|
D|-------------------------------------------------------------------------------|

E|----------------------------------------------------------------|
B|----------------------------------------------------------------|
G|-8-8-8-8-10-10-10-10-7-7-7-7-8-8-8-8-8-8-8-8-8-8-10-10-8-8-7-7--|
D|----------------------------------------------------------------|
A|----------------------------------------------------------------|
D|----------------------------------------------------------------|

E|--------------6---------6-----------------------------|
B|------------------8-----------------------------------|
G|------7---8----------------8---7---8---10---7---8-----|
D|-10---------------------~-----------------------------|
A|------------------------------------------------------|
D|------------------------------------------------------|

[Chorus 3/Outro]
E|------------------------------------------------------------|
B|----6--------------------------------8--8--8--8--8--8-------|
G|-8-----8--7--5--5--5--5--5--5--8--8--------------------8--8-|
D|------------------------------------------------------------|
A|------------------------------------------------------------|
D|------------------------------------------------------------|

E|------------------------------------------------------------|
B|------------------------------------------------------------|
G|-7--7--7--7--7--7--7--7--8-8-8-8-8-8-8-8-8-8-10-10-8-8-7-7--|
D|------------------------------------------------------------|
A|------------------------------------------------------------|
D|------------------------------------------------------------|

E|------------------------------------------------------------------------------|
B|---------------------------------------------8-8-8-8-8-8-8-8-8-8-8-8----------|
G|-------------------------------------8-8-8-8-------------------------8-8-8-8--|\
D|-10-10-10-10-10-10-10-10-10-10-10-10------------------------------------------| \
A|------------------------------------------------------------------------------|  \
D|------------------------------------------------------------------------------|   \
                                                                                    / (x2)
E|----------------------------------------------------------------------|          /
B|----------------------------------------------------------------------|         /
G|-7-7-7-7-7-7-7-7-7-7-7-7-7-7-7-7-8-8-8-8-8-8-8-8-8-8-8-10-10-8-8-7-7--|        /
D|----------------------------------------------------------------------|       /
A|----------------------------------------------------------------------|
D|----------------------------------------------------------------------|

E|------------------------------------------------------------------------------|
B|---------------------------------------------8-8-8-8-8-8-8-8-8-8-8-8----------|
G|-------------------------------------8-8-8-8-------------------------8-8-8-8--|
D|-10-10-10-10-10-10-10-10-10-10-10-10------------------------------------------| 
A|------------------------------------------------------------------------------|  
D|------------------------------------------------------------------------------|   
                                                                                    
E|------------------------------------------------------------------------------|          
B|------------------------------------------------------------------------------|         
G|-7-7-7-7-7-7-7-7-7-7-7-7-7-7-7-7-8-8-8-8-8-8-8-8-8-8-8-10-10-8-8-7-8----------|        
D|---------------------------------------------------------------------------1--|       
A|---------------------------------------------------------------------------1--|
D|---------------------------------------------------------------------------1--|

(Guitar 2) 
(Rhythm guitar)

[Pre-Verse] 
(starts at 1:04)
E|----------------------------------------------------------------------------------|
B|----------------------------------------------------------------------------------|
G|----------------------------------------------------------------------------------|
D|-10-10-10-10-10-10-10-10-10-10-10-10-10-10-10-10-1-1-1-1-1-1-1-1-1-1-1-1-1-1-1-1--| (x2)
A|-10-10-10-10-10-10-10-10-10-10-10-10-10-10-10-10-1-1-1-1-1-1-1-1-1-1-1-1-1-1-1-1--|
D|-10-10-10-10-10-10-10-10-10-10-10-10-10-10-10-10-1-1-1-1-1-1-1-1-1-1-1-1-1-1-1-1--|

[Verse 2]
E|----------------------------------------------------------------------------------|
B|----------------------------------------------------------------------------------|
G|----------------------------------------------------------------------------------| 
D|----------------------------------------------------------------------------------| (x2)
A|-10-10-10-10-10-10-10-10-10-10-10-10-10-10-10-10-1-1-1-1-1-1-1-1-1-1-1-1-1-1-1-1--|
D|-10-10-10-10-10-10-10-10-10-10-10-10-10-10-10-10-1-1-1-1-1-1-1-1-1-1-1-1-1-1-1-1--|
   .  .  .  .  .  .  .  .  .  .  .  .  .  .  .  .  . . . . . . . . . . . . . . . . 

E|----------------------------------------------------------------------------------|
B|----------------------------------------------------------------------------------|
G|----------------------------------------------------------------------------------|
D|-6-6-6-6-6-6-6-6-6-6-6-6-6-6-6-6-10-10-10-10-10-10-10-10-10-10-10-10-10-10-10-10--|
A|-6-6-6-6-6-6-6-6-6-6-6-6-6-6-6-6-10-10-10-10-10-10-10-10-10-10-10-10-10-10-10-10--|
D|-6-6-6-6-6-6-6-6-6-6-6-6-6-6-6-6-10-10-10-10-10-10-10-10-10-10-10-10-10-10-10-10--|
   . . . . . . . . . . . . . . . . .  .  .  .  .  .  .  .  .  .  .  .  .  .  .  .

E|------------------------------------------------------------------|
B|------------------------------------------------------------------|
G|------------------------------------------------------------------|
D|-8-8-8-8-8-8-8-8-8-8-8-8-8-8-8-8-5-5-5-5-5-5-5-5-5-5-5-5-5-5-5-5--|
A|-8-8-8-8-8-8-8-8-8-8-8-8-8-8-8-8-5-5-5-5-5-5-5-5-5-5-5-5-5-5-5-5--|
D|-8-8-8-8-8-8-8-8-8-8-8-8-8-8-8-8-5-5-5-5-5-5-5-5-5-5-5-5-5-5-5-5--|
   . . . . . . . . . . . . . . . . . . . . . . . . . . 

[Chorus 2/Interlude]
E|------------------------------------------------------------------|
B|------------------------------------------------------------------|      \
G|------------------------------------------------------------------|       \
D|-6-6-6-6-6-6-6-6-6-6-6-6-6-6-6-6-1-1-1-1-1-1-1-1-1-1-1-1-1-1-1-1--|        \
A|-6-6-6-6-6-6-6-6-6-6-6-6-6-6-6-6-1-1-1-1-1-1-1-1-1-1-1-1-1-1-1-1--|         \
D|-6-6-6-6-6-6-6-6-6-6-6-6-6-6-6-6-1-1-1-1-1-1-1-1-1-1-1-1-1-1-1-1--|          \
                                                                                \ (x4)
E|--------------------------------------------------------------------------|   /
B|--------------------------------------------------------------------------|  /
G|--------------------------------------------------------------------------| /
D|-8-8-8-8-8-8-8-8-8-8-8-8-8-8-8-8-10-10-10-10-10-10-10-10-8-8-8-8-8-8-8-8--|/
A|-8-8-8-8-8-8-8-8-8-8-8-8-8-8-8-8-10-10-10-10-10-10-10-10-8-8-8-8-8-8-8-8--|
D|-8-8-8-8-8-8-8-8-8-8-8-8-8-8-8-8-10-10-10-10-10-10-10-10-8-8-8-8-8-8-8-8--|

[Chorus 3/Outro] 
(starts at 2:50)
E|------------------------------------------------------------------|
B|------------------------------------------------------------------|      \
G|------------------------------------------------------------------|       \
D|-6-6-6-6-6-6-6-6-6-6-6-6-6-6-6-6-1-1-1-1-1-1-1-1-1-1-1-1-1-1-1-1--|        \
A|-6-6-6-6-6-6-6-6-6-6-6-6-6-6-6-6-1-1-1-1-1-1-1-1-1-1-1-1-1-1-1-1--|         \
D|-6-6-6-6-6-6-6-6-6-6-6-6-6-6-6-6-1-1-1-1-1-1-1-1-1-1-1-1-1-1-1-1--|          \
                                                                                \ (x3)
E|--------------------------------------------------------------------------|   /
B|--------------------------------------------------------------------------|  /
G|--------------------------------------------------------------------------| /
D|-8-8-8-8-8-8-8-8-8-8-8-8-8-8-8-8-10-10-10-10-10-10-10-10-8-8-8-8-8-8-8-8--|/
A|-8-8-8-8-8-8-8-8-8-8-8-8-8-8-8-8-10-10-10-10-10-10-10-10-8-8-8-8-8-8-8-8--|
D|-8-8-8-8-8-8-8-8-8-8-8-8-8-8-8-8-10-10-10-10-10-10-10-10-8-8-8-8-8-8-8-8--|

(At the end of the third time end with:)
E|---------------|
B|---------------|      
G|---------------|       
D|-6---------1---|        
A|-6---------1---|        
D|-6---------1---|          
                                 
                                               
************************************

| . Palm muted

************************************

            
            
Suggest correction
Creating personal tab
Creating personal tab
You can edit any tab online and save it as your Personal.

You can edit, replace or remove any tab part or add personal notes – all changes will be seen only by you.

Personal tabs can be accessed anytime from any device, even offline.
Learn more »
Give kudos to tab author, rate the tab!
1 2 3 4 5
comments
print report bad tab
guest
You may want to rate the tab now too:
select rating
Wanna post a correction for this tab? Suggest correction