Oops, an error
Loading. Please wait.

Forgotten bass

version 1
version 1

Whole song

Interactive

1,064 views 3 this week
no commentswrite comment
1 2 3 4 5
1 last vote to show rating
add to favorites
×
Save as Personal and add changes to this tab that will be seen only by you. Learn more ›
×
You can save this tab as Personal to edit and correct it or add notes. All changes will be seen only by you. Learn more »
launch autoscroll
font size
0
reset
guitar tuner
edit
Autoscroll
slow
fast
+/-
esc
set tempo
stop
Linkin Park
Forgotten
5 String Bass - Standard Tuning
Tabbed by: PitchImperfect
Date: 16/03/06

There's loads of tabs for this song but none of them go into the full detail
of the verse and especially the bridge so I decided to do my best at it.  Let
me know what you think.
The verse can be played 2 different ways.  I find the first way I've tabbed
more comfortable but it's harder to go back to after the chorus.


INTRO
G|-----------------------------------------------------|
D|-----------------------------------------------------|
A|-----------------------------------------------------|
E|-----------------------------------------------------|
B|-5-4--4--4--4-5-4--4-------5-4--4--4--4-5-4--4-------|

G|-----------------------------------------------------|
D|-----------------------------------------------------|
A|-----------------------------------------------------|
E|-----------------------------------------------------|
B|-5-4--4--4--4-5-4--4-------5-4--4--4--4-5--5--4--7---|


VERSE
G|---------------------|       G|---------------------|
D|---------------------|       D|---1-1h2-1--------4--|
A|---6-6h7-6--------9--|       A|-----------2---------|
E|-----------7---------|       E|-4-------------4-2-2-|
B|-9-------------9-7-7-|  x4   B|---------------------|
                               Can also be played like this - makes it
                               easier to go back to it after the chorus.

PRE-CHORUS
G|-----------------------------------------------------|
D|-----------------------------------------------------|
A|-----------------------------------------------------|
E|-----------------------------------------------------|
B|-5-4--4--4--4-5-4--4-------5-4--4--4--4-5--5--4--7---|


CHORUS
G|---------------------------------------------|
D|---------------------------------------------|
A|-----6h7\2---1h2-1h2-------6h7\2---1h2-1h2---|
E|-4-------------------4-4-------------------4-|
B|---------------------------------------------|

G|---------------------------------------------|
D|---------------------------------------------|
A|-----6h7\2---1h2-1h2-------6h7\2---1-2-1-2---|
E|-4-------------------4-4---------------------|
B|---------------------------------------------|

G|-----------------------|
D|-----------------------|
A|-----6-6h7-6--------9--|
E|-------------7---------|
B|-7h9-------------9-7-7-|


VERSE
G|---------------------|
D|---------------------|
A|---6-6h7-6--------9--|
E|-----------7---------|
B|-9-------------9-7-7-| 

G|---------------------|
D|---------------------|
A|---6-6h7-6--------99-|
E|-----------7---------|
B|-9-------------9-7---|

G|---------------------|
D|---------------------|
A|---6-6h7-6--------9--|
E|-----------7---------|
B|-9-------------9-7-7-|  x2


PRE-CHORUS
G|-----------------------------------------------------|
D|-----------------------------------------------------|
A|-----------------------------------------------------|
E|-----------------------------------------------------|
B|-5-4--4--4--4-5-4--4-------5-4--4--4--4-5-4--4-------|

G|-----------------------------------------------------|
D|-----------------------------------------------------|
A|-----------------------------------------------------|
E|-----------------------------------------------------|
B|-5-4--4--4--4-5-4--4-------5-4--4--4--4-5--5--4--7---|


CHORUS
G|---------------------------------------------|
D|---------------------------------------------|
A|-----6h7\2---1h2-1h2-------6h7\2---1h2-1h2---|
E|-4-------------------4-4-------------------4-|
B|---------------------------------------------|

G|---------------------------------------------|
D|---------------------------------------------|
A|-----6h7\2---1h2-1h2-------6h7\2---1h2-1h2---|
E|-4-------------------4-4---------------------|
B|---------------------------------------------|


BRIDGE
G|----------------------------|
D|----------------------------|
A|----------------------------|
E|----------------------------|
B|-9--9--7-9-5--55555-4-4-5-7-|  x6

G|----------------------------|
D|----------------------------|
A|-------7--------6-----------|
E|----7----7--------------9---|
B|-5---------4--4---4-7-7---7-|


CHORUS
G|---------------------------------------------|
D|---------------------------------------------|
A|-----6h7\2---1h2-1h2-------6h7\2---1h2-1h2---|
E|-4-------------------4-4-------------------4-|
B|---------------------------------------------|  x3

G|-------------------------|
D|-------------------------|
A|-----6h7\2---1h2-1h2-----|
E|-4-------------------4-4-|
B|-------------------------|

            
            
Suggest correction
Creating personal tab
Creating personal tab
You can edit any tab online and save it as your Personal.

You can edit, replace or remove any tab part or add personal notes – all changes will be seen only by you.

Personal tabs can be accessed anytime from any device, even offline.
Learn more »
Give kudos to tab author, rate the tab!
1 2 3 4 5
comments
print report bad tab
guest
You may want to rate the tab now too:
select rating
Wanna post a correction for this tab? Suggest correction