Oops, an error
Loading. Please wait.

Given Up Tab

version 1
version 1
333,530 views 270 this week
80 commentsread comments
1 2 3 4 5
excellent!
x 190
add to favorites
launch autoscroll
font size
0
reset
how to read this tab
guitar tuner
Autoscroll
slow
fast
+/-
esc
set tempo
stop
Help us to improve Ultimate-Guitar.com Take our survey!
×
Author
Difficulty
Tuning
Xero-P 628
novice
D A D G B E
Artist :  Linkin Park
Song   :  Given Up
Album  :  Minutes to Midnight
Tabber :  Xero-P
Tunning:  Dropped D

Aquí está mi versión de la pedazo de canción de Linkin Park, Given Up. La tab proviene
la versión en directo de Berlín del día 28 de Abril. Podeis conseguir el MP3 en
donde también colaboro. Un saludo a todos los que entrais y a todos los fans de
Linkin Park en general.

Puntuad la tab por favor! Gracias


[Intro]

(First Time, One Guitar. Second Time, Both Guitars)
e|---x-x--x-x--x-x-x--x-x---x-x-x-x---x-x-x--x-x-----x-x--x-x--x-x-x--x-x-----x-x--x-x--x-x---x-x-------|
B|---x-x--x-x--x-x-x--x-x---x-x-x-x---x-x-x--x-x-----x-x--x-x--x-x-x--x-x-----x-x--x-x--x-x---x-x-------|
G|---x-x--x-x--x-x-x--x-x---x-x-x-x---x-x-x--x-x-----x-x--x-x--x-x-x--x-x-----x-x--x-x--x-x---x-x-------|
D|-2-x-x--x-x--x-x-x--x-x-3-2-x-x-x-x-x-x-x--x-x-3-2-x-x--x-x--x-x-x--x-x-3-2-x-x--x-x--x-x-8-x-x-------|
A|-2-x-x--x-x--x-x-x--x-x-3-2-x-x-x-x-x-x-x--x-x-3-2-x-x--x-x--x-x-x--x-x-3-2-x-x--x-x--x-x-8-x-x-3-----|
D|-2-x-x--x-x--x-x-x--x-x-3-2-x-x-x-x-x-x-x--x-x-3-2-x-x--x-x--x-x-x--x-x-3-2-x-x--x-x--x-x-8-x-x-3-----|(x2)


[Verse 1]

N.C.
Waking in sweat again. Another day’s been laid to waste, In my disgrace.
Stuck in my head again, Feels like I’ll never leave this place, There’s no escape.

I’m my own worst enemy.


[Chorus]

e|-------------------------------------------------|
B|-------------------------------------------------|
G|-------------------------------------------------|
D|-2--2-2-2-2--5--5-5-5-5--0--0-0-0-0--7--7-7-7-7--|
A|-2--2-2-2-2--5--5-5-5-5--0--0-0-0-0--7--7-7-7-7--|
D|-2--2-2-2-2--5--5-5-5-5--0--0-0-0-0--7--7-7-7-7--|(x3)

e|-----------------------------------------------------------------------------|
B|-----------------------------------------------------------------------------|
G|-----------------------------------------------------------------------------|
D|-2--2-2-2-2--5--5-5-5-5--0--0-0-0-0-0-0-0-0-0-0-0--7--7-7-7-7--x-x-8--x-x-3--|
A|-2--2-2-2-2--5--5-5-5-5--0--0-0-0-0-0-0-0-0-0-0-0--7--7-7-7-7--x-x-8--x-x-3--|
D|-2--2-2-2-2--5--5-5-5-5--0--0-0-0-0-0-0-0-0-0-0-0--7--7-7-7-7--x-x-8--x-x-3--|

I’ve Given Up, I’m Sick of feeling.
Is there nothing you can say?
Take this all away, I’m suffocating,
Tell me what the fuck is wrong, With me!!!


[Verse 2]

N.C.
I don't know what to take Thought, I was focused but I'm scared, I'm not prepared
I hyperventilate , Looking for hope somehow somewhere, And noone cares

I’m my own worst enemy.


[Chorus]

e|-------------------------------------------------|
B|-------------------------------------------------|
G|-------------------------------------------------|
D|-2--2-2-2-2--5--5-5-5-5--0--0-0-0-0--7--7-7-7-7--|
A|-2--2-2-2-2--5--5-5-5-5--0--0-0-0-0--7--7-7-7-7--|
D|-2--2-2-2-2--5--5-5-5-5--0--0-0-0-0--7--7-7-7-7--|(x3)

e|-----------------------------------------------------------------------------|
B|-----------------------------------------------------------------------------|
G|-----------------------------------------------------------------------------|
D|-2--2-2-2-2--5--5-5-5-5--0--0-0-0-0-0-0-0-0-0-0-0--7--7-7-7-7--x-x-8--x-x-3--|
A|-2--2-2-2-2--5--5-5-5-5--0--0-0-0-0-0-0-0-0-0-0-0--7--7-7-7-7--x-x-8--x-x-3--|
D|-2--2-2-2-2--5--5-5-5-5--0--0-0-0-0-0-0-0-0-0-0-0--7--7-7-7-7--x-x-8--x-x-3--|

I’ve Given Up, I’m Sick of feeling.
Is there nothing you can say?
Take this all away, I’m suffocating,
Tell me what the fuck is wrong, With me!!!


[Bridge]

e|-----------------------------------|
B|------------------------------^----|
G|------------------------------2----|
D|-----------------------------------|
A|-----------------------------------|
D|-0-1-2-0-4-3-0-6-5-0-1-2-0-2-------|
   x x x x x x x x x x x x x x

e|--------------------------------------------------------------------------------|
B|-----------------------------^--------------------------------------------------|
G|-----------------------------2--------------------------------------------------|
D|-0-1-2-0-4-3-0-6-5-0-1-2-0-2---0-1-2-0-4-3-0-6-5-0-1-2-3-0-3-4-5-0-1-2-3-0-2-3--|
A|-0-1-2-0-4-3-0-6-5-0-1-2-0-2---0-1-2-0-4-3-0-6-5-0-1-2-3-0-3-4-5-0-1-2-3-0-2-3--|
D|-0-1-2-0-4-3-0-6-5-0-1-2-0-2---0-1-2-0-4-3-0-6-5-0-1-2-3-0-3-4-5-0-1-2-3-0-2-3--|(x2)

e|-----------------------------|
B|-----------------------------|
G|-----------------------------|
D|-0-7-0-1-2-0-4-3-2-1---------|
A|-0-7-0-1-2-0-4-3-2-1---------|
D|-0-7-0-1-2-0-4-3-2-1---------|

Put me out of my misery
Put me out of my misery
Put me out of my
Put me out of my fucking misery


[Intro]

(First Time, One Guitar. Second Time, Both Guitars)
e|---x-x--x-x--x-x-x--x-x---x-x-x-x---x-x-x--x-x-----x-x--x-x--x-x-x--x-x-----x-x--x-x--x-x---x-x-------|
B|---x-x--x-x--x-x-x--x-x---x-x-x-x---x-x-x--x-x-----x-x--x-x--x-x-x--x-x-----x-x--x-x--x-x---x-x-------|
G|---x-x--x-x--x-x-x--x-x---x-x-x-x---x-x-x--x-x-----x-x--x-x--x-x-x--x-x-----x-x--x-x--x-x---x-x-------|
D|-2-x-x--x-x--x-x-x--x-x-3-2-x-x-x-x-x-x-x--x-x-3-2-x-x--x-x--x-x-x--x-x-3-2-x-x--x-x--x-x-8-x-x-------|
A|-2-x-x--x-x--x-x-x--x-x-3-2-x-x-x-x-x-x-x--x-x-3-2-x-x--x-x--x-x-x--x-x-3-2-x-x--x-x--x-x-8-x-x-3-----|
D|-2-x-x--x-x--x-x-x--x-x-3-2-x-x-x-x-x-x-x--x-x-3-2-x-x--x-x--x-x-x--x-x-3-2-x-x--x-x--x-x-8-x-x-3-----|(x3)


[Chorus]

e|-------------------------------------------------|
B|-------------------------------------------------|
G|-------------------------------------------------|
D|-2--2-2-2-2--5--5-5-5-5--0--0-0-0-0--7--7-7-7-7--|
A|-2--2-2-2-2--5--5-5-5-5--0--0-0-0-0--7--7-7-7-7--|
D|-2--2-2-2-2--5--5-5-5-5--0--0-0-0-0--7--7-7-7-7--|(x3)

e|-----------------------------------------------------------------------------|
B|-----------------------------------------------------------------------------|
G|-----------------------------------------------------------------------------|
D|-2--2-2-2-2--5--5-5-5-5--0--0-0-0-0-0-0-0-0-0-0-0--7--7-7-7-7--x-x-8--x-x-3--|
A|-2--2-2-2-2--5--5-5-5-5--0--0-0-0-0-0-0-0-0-0-0-0--7--7-7-7-7--x-x-8--x-x-3--|
D|-2--2-2-2-2--5--5-5-5-5--0--0-0-0-0-0-0-0-0-0-0-0--7--7-7-7-7--x-x-8--x-x-3--|

(End)

I’ve Given Up, I’m Sick of feeling.
Is there nothing you can say?
Take this all away, I’m suffocating,
Tell me what the fuck is wrong, With me!
Suggest correction
What's this?
You can suggest a correction to this tab. Community and Mods will review your correction and vote to approve or reject it.
comments
print report bad tab
80 comments total. Showing first comments. show 1 bad comment
0 reply
slimtim333 419 wrote on May 4 2007, 01:49 pm

In your bridge 2 bars are missing.Could add them?
Otherwise, a nice job!! This song is amazing!

-2 reply
slimtim333 419 wrote on May 5 2007, 07:57 am

IT´S Linkin Park, Noob!!
watch this:
http://www.youtube.com/watch?v=fUxksxcq1DA
LP played this song in berlin.

guest
You may want to rate the tab now too:
select rating
Please do not post tabs as comments. Select "correction" instead!