Oops, an error
Loading. Please wait.
We have an official Given Up tab made by UG professional guitarists. Check out the tab »
×
55,488 views 201 this week
6 commentsread comments
1 2 3 4 5
x 27
add to favorites
×
Save as Personal and add changes to this tab that will be seen only by you. Learn more ›
×
You can save this tab as Personal to edit and correct it or add notes. All changes will be seen only by you. Learn more »
launch autoscroll
font size
0
reset
guitar tuner
backing track
0:00
0:00
edit
Autoscroll
slow
fast
+/-
esc
set tempo
stop
[Intro] (when the drums come in)
G|------------------------------------------------------------------|
D|------------------------------------------------------------------|
A|-----------------------------------------------------------1------|
D|-2-22-22-222-223-2-22-22-222-223-2-22-22-222-223-2-22-22-22--223--|

[Verse]
G|------------------------------------------------------------------|
D|------------------------------------------------------------------|
A|-----------------------------------------------------------1------|
D|-2-22-22-222-223-2-22-22-222-223-0-00-00-000-003-2-22-22-22--223--|

G|------------------------------------------------------------------|
D|------------------------------------------------------------------|
A|-----------------------------------------------------------1------|
D|-2-22-22-222-223-2-22-22-222-223-0-00-00-000-003-2-22-22-22--223--|

[Pre-Chorus]
G|-----------------|
D|-----------------|
A|-2-2-2-2-2-2-2-2-|
D|-----------------|

[Chorus]
G|-----------------------------------|
D|-----------------------------------|
A|-------------------------0-0-0-0---|x3
D|-2-2-2-2-5-5-5-5-0-0-0-0-----------|

G|---------------------------------------------------------------|
D|---------------------------------------------------------------|
A|--------------------------------------------1------------------|
D|-2-2-2-2-5-5-5-5-0-0-0-0-0-0-0-0-7-7-7-7--xx--xx3--------------|

[Verse]
G|------------------------------------------------------------------|
D|------------------------------------------------------------------|
A|-----------------------------------------------------------1------|
D|-2-22-22-222-223-2-22-22-222-223-0-00-00-000-003-2-22-22-22--223--|

G|------------------------------------------------------------------|
D|------------------------------------------------------------------|
A|-----------------------------------------------------------1------|
D|-2-22-22-222-223-2-22-22-222-223-0-00-00-000-003-2-22-22-22--223--|

[Pre-Chorus]
G|-----------------|
D|-----------------|
A|-2-2-2-2-2-2-2-2-|
D|-----------------|

[Chorus]
G|-----------------------------------|
D|-----------------------------------|
A|-------------------------0-0-0-0---|x3
D|-2-2-2-2-5-5-5-5-0-0-0-0-----------|

G|---------------------------------------------------------------|
D|---------------------------------------------------------------|
A|--------------------------------------------1------------------|
D|-2-2-2-2-5-5-5-5-0-0-0-0-0-0-0-0-7-7-7-7--xx--xx3--------------|

[Bridge] (Guitar alone first)
G|----------------------------------------------------------------|
D|----------------------------------------------------------------|
A|----------------------------------------------------------------|
D|-0-1-2-0-4-3-0-6-5-0-1-2-0-2~---0-1-2-0-4-3-0-6-5-0-1-2-0-3-2-1-|

G|-------------------------------------------------------------------|
D|-------------------------------------------------------------------|
A|-------------------------------------------------------------------|
D|-0-1-2-0-4-3-0-6-5-0-1-2-4-3-2-1---0-1-2-0-4-3-0-6-5-0-1-2-0-3-2-1-|

G|---------------------------------------------------------------|
D|---------------------------------------------------------------|
A|---------------------------------------------------------------|
D|-0-1-2-0-4-3-0-6-5-0-1-2-3-0-2-3-4-0-1-2-3-0-2-3---------------|

[Interlude] (Guitar plays first)
G|---------------------------------------------------------------|
D|---------------------------------------------------------------|
A|---------------------------------------------------------------|
D|-2-22-22-222-223-2-22-22-222-223-2-22-22-222-223---------------|

[Chorus]
G|-----------------------------------|
D|-----------------------------------|
A|-------------------------0-0-0-0---|x3
D|-2-2-2-2-5-5-5-5-0-0-0-0-----------|

G|---------------------------------------------------------------|
D|---------------------------------------------------------------|
A|--------------------------------------------1------------------|
D|-2-2-2-2-5-5-5-5-0-0-0-0-0-0-0-0-7-7-7-7--xx--xx3-2------------|

************************************

| x  Dead note
| ~  Vibrato

************************************

            
            
Suggest correction
Creating personal tab
Creating personal tab
You can edit any tab online and save it as your Personal.

You can edit, replace or remove any tab part or add personal notes – all changes will be seen only by you.

Personal tabs can be accessed anytime from any device, even offline.
Learn more »
comments
print report bad tab
6 comments total. Showing first comments.
0 reply
JL Sevenfold 697 Jun 20, 2007 09:30 AM

good job, I don't know if you do dead strings on the bass, but I'm a
beginner and wouldn't know anyway

0 reply
carpplaysbass 97 Jun 24, 2007 01:11 PM

Great tab! Can't find much wrong with it. This is much better than assuming everyone has a 5 stringed bass. lol

+2 reply
slimtim333 479 Jul 03, 2007 09:14 AM

first the pre-chorus goes like that:
G|----------------
D|----------------
A|2222222222222222
D|----------------
And then: the bridge of this song is totally different than you post it. You must have another version of this song or whatever.Here is it:

Part one
G|--------------------------------|
D|--------------------------------|
A|--------------------------------|
D|0-1-2-0-4-3-0-6-5-0-1-2-0-1-----|
Part two
G|--------------------------------|
D|--------------------------------|
A|--------------------------------|
D|0-1-2-0-4-3-0-6-5-0-1-2-0-3-2-1-|
Part one again
then part two again and then:
G|-------------------------------------------------|
D|-------------------------------------------------|
A|-------------------------------------------------|
D|0-1-2-0-4-3-0-6-5-0-1-2-3-0-2-3-5-0-1-2-3-0-2-3-2|

guest
You may want to rate the tab now too:
select rating
Wanna post a correction for this tab? Suggest correction