Oops, an error
Loading. Please wait.

Guilty All The Same bass

version 3
version 3

Whole song

  • Transcribed from Rocksmith, arranged for autoscroll. Video link in tab.
22 views 1 this week
no commentswrite comment
1 2 3 4 5
1 last vote to show rating
add to favorites
×
Save as Personal and add changes to this tab that will be seen only by you. Learn more ›
×
You can save this tab as Personal to edit and correct it or add notes. All changes will be seen only by you. Learn more »
launch autoscroll
font size
0
reset
guitar tuner
backing track
0:00
0:00
edit
Autoscroll
slow
fast
+/-
esc
set tempo
stop
About this tab version
Transcribed from Rocksmith, arranged for autoscroll. Video link in tab. Was this info helpful? Yes No
https://www.youtube.com/watch?v=B738NUiCVcA

[Intro]
(Rest for 8 bars)
G|-----------------|-----------------|-----------------|-----------------|
D|-----------------|-----------------|-----------------|-----------------|
A|-----------------|-----------------|-----------------|-----------------|
D|-0-----5------7--|--0-----5------8-|-----0-----8-----|-7-7-7-7-3-3-3-3-|

G|-----------------|-----------------|-----------------|-----------------|
D|-----------------|-----------------|-----------------|-----------------|
A|-----------------|-----------------|-----------------|-----------------|
D|-0-----0------0--|--0-----0------0-|-0-0-0-0-0-0-0---|-----------------|

G|-----------------|-----------------|-----------------|-----------------|
D|-----------------|-----------------|-----------------|-----------------|
A|-----------------|-----------------|-----------------|-----------------|
D|-----------------|-----------------|-----------------|-----------------|

G|-----------------|-----------------|-----------------|-----------------|
D|-----------------|-----------------|-----------------|-----------------|
A|-----------------|-----------------|-----------------|-----------------|
D|-----------------|-----------------|-----------------|-----------------|

G|-------------------------|-------------------------|-------------------------|-------------------------|
D|-------------------------|-------------------------|-------------------------|-------------------------|
A|-------------------------|-------------------------|-------------------------|-------------------------|
D|-12-12-12-12-12-12-12-12-|-12-12-12-12-12-12-12-12-|-12-12-12-12-12-12-12-12-|-12-12-12-12-12-12-12-12-|

G|-------------------------|-------------------------|-------------------------|---------------------|
D|-------------------------|-------------------------|-------------------------|---------------------|
A|-------------------------|-------------------------|-------------------------|-------------0---0---|
D|-12-12-12-12-12-12-12-12-|-12-12-12-12-12-12-12-12-|-12-12-12-12-12-12-12-12-|-12-12-12-12---------|

G|-----------------|-----------------|-----------------|-----------------|
D|-----------------|-----------------|-----------------|-----------------|
A|-----------------|-----------------|-----------------|-----------------|
D|-0-----5------7--|--0-----5------8-|-----0-----8-----|-7---7---3---3---|

G|-----------------|-----------------|-----------------|-------------------|
D|-----------------|-----------------|-----------------|-------------------|
A|-----------------|-----------------|-----------------|-------------------|
D|-0-----5------7--|--0-----5------8-|-----0-----8-----|-10---10---7---7---|

G|-----------------|-----------------|-----------------|-----------------|
D|-----------------|-----------------|-----------------|-----------------|
A|-----------------|-----------------|-----------------|-----------------|
D|-0-----5------7--|--0-----5------8-|-----0-----8-----|-7---7---3---3---|

G|-----------------|-----------------|-----------------|---------------------|
D|-----------------|-----------------|-----------------|---------------------|
A|-----------------|-----------------|-----------------|---------------------|
D|-0-----5------7--|--0-----5------8-|-----0-----8-----|-10-10-10-10-7-7-7-7-|

G|-----------------|-----------------|-----------------|-----------------|
D|-----------------|-----------------|-----------------|-----------------|
A|-----------------|-----------------|-----------------|-----------------|
D|-0---------------|-----------------|-----------------|-----------------|

G|-----------------|-----------------|-----------------|-----------------|
D|-----------------|-----------------|-----------------|-----------------|
A|-----------------|-----------------|-----------------|-----------------|
D|-----------------|-----------------|-----------------|-----------------|

G|-----------------|-----------------|-----------------|-----------------|
D|-----------------|-----------------|-----------------|-----------------|
A|-----------------|-----------------|-----------------|-----------------|
D|-0---------------|-----------------|-----------------|---------0-0-0-0-|

G|-----------------|-----------------|-----------------|-----------------|
D|-----------------|-----------------|-----------------|-----------------|
A|-----------------|-----------------|-----------------|-----------------|
D|-----------------|-----------------|-3---------------|-----------------|

G|-----------------|-----------------|-----------------|-----------------|
D|-----------------|-----------------|-----------------|-----------------|
A|-----------------|-----------------|-----------------|-----------------|
D|-0---0---0-0-0-0-|---0-0---0-0-0---|-7---7---7-7-7-7-|---7-7---7-7-7---|

G|-----------------|-----------------|-----------------|-----------------|
D|-----------------|-----------------|-----------------|-----------------|
A|-----------------|-----------------|-----------------|-----------------|
D|-8---8---8-8-8-8-|---8-8---8-8-8---|-3-3-3-3-3-3-3-/-|-7-7-7-7-7-7-3---|

G|-----------------|-----------------|-----------------|-----------------|
D|-----------------|-----------------|-----------------|-----------------|
A|-----------------|-----------------|-----------------|-----------------|
D|-0---0---0-0-0-0-|---0-0---0-0-0---|-7---7---7-7-7-7-|---7-7---7-7-7---|

G|-----------------|-----------------|-----------------|-----------------|
D|-----------------|-----------------|-----------------|-----------------|
A|-----------------|-----------------|-----------------|-----------------|
D|-8---8---8-8-8-8-|---8-8---8-8-8-\-|-3---3---3-3-3-3/|-7-7-7-7-7-7-3---|

[Verse] (x2)
G|-----------------|-----------------|-----------------|-----------------|
D|-----------------|-----------------|-----------------|-----------------|
A|-----------------|-----------------|-----------------|-----------------|
D|-0---------------|-----------------|-7---------------|-----------------|

G|-----------------|-----------------|-----------------|-----------------|
D|-----------------|-----------------|-----------------|-----------------|
A|-----------------|-----------------|-----------------|-----------------|
D|-8---------------|-----------------|-3---------------|-2---------------|

[Pre-Chorus]
G|-----------------|-----------------|-----------------|-----------------|
D|-----------------|-----------------|-----------------|-----------------|
A|-1---1---1---1---|-1---1---1---1---|-3---3---3---3---|-3---3---3---3---|
D|-----------------|-----------------|-----------------|-----------------|

G|-----------------|-----------------|-----------------|-----------------|
D|-----------------|-----------------|-----------------|-----------------|
A|-0---0---0---0---|-0---0---0---0---|-0---0---0---0---|-0---0---0---0---|
D|-----------------|-----------------|-----------------|-----------------|

[Chorus]
G|-----------------|-----------------|-----------------|-----------------|
D|-----------------|-----------------|-----------------|-----------------|
A|-----------------|-----------------|-----------------|-----------------|
D|-0---------------|-----------------|-7---------------|-----------------|

G|-----------------|-----------------|-----------------|-----------------|
D|-----------------|-----------------|-----------------|-----------------|
A|-----------------|-----------------|-----------------|-0---------------|
D|-8---------------|-----------------|-3---------------|-------------3---|

G|-----------------|-----------------|-----------------|-----------------|
D|-----------------|-----------------|-----------------|-----------------|
A|-----------------|-----------------|-----------------|-----------------|
D|-0---------------|-----------------|-7---------------|-----------------|

G|-----------------|-----------------|-----------------|-----------------|
D|-----------------|-----------------|-----------------|-----------------|
A|-----------------|-----------------|-----------------|-----------------|
D|-8---------------|-----------------|-3---------------|-----------------|

[Post Chorus]
G|-----------------|-----------------|-----------------|-----------------|
D|-----------------|-----------------|-----------------|-----------------|
A|-----------------|-----------------|-----------------|-----------------|
D|-0---0---0-0-0-0-|---0-0---0-0-0---|-7---7---7-7-7-7-|---7-7---7-7-7---|

G|-----------------|-----------------|-----------------|-----------------|
D|-----------------|-----------------|-----------------|-----------------|
A|-----------------|-----------------|-----------------|-----------------|
D|-8---8---8-8-8---|-8---8---8-8-8-\-|-3-3-3-3-3-3-3-/-|-7-7-7-7-7-7-3---|

[Verse 2]
G|-----------------|-----------------|-----------------|-----------------|
D|-----------------|-----------------|-----------------|-----------------|
A|-----------------|-----------------|-----------------|-----------------|
D|-0---------------|-----------------|-7---------------|-----------------|

G|-----------------|-----------------|-----------------|-----------------|
D|-----------------|-----------------|-----------------|-----------------|
A|-----------------|-----------------|-----------------|-----------------|
D|-8---------------|-----------------|-3---------------|-2---------------|

G|-----------------|-----------------|-----------------|-----------------|
D|-----------------|-----------------|-----------------|-----------------|
A|-----------------|-----------------|-----------------|-----------------|
D|-0---------------|-----------------|-7---------------|-----------------|

G|-----------------|-----------------|-----------------|-----------------|
D|-----------------|-----------------|-----------------|-----------------|
A|-----------------|-----------------|-----------------|-----------------|
D|-8---------------|-----------------|-3---------------|-2---2---2---2---|

[Pre-Chorus 2]
G|-----------------|-----------------|-----------------|-----------------|
D|-----------------|-----------------|-----------------|-----------------|
A|-1---1---1---1-1-|-1-1-1---1---1---|-3---3---3-3-3-3-|---3-3---3---3---|
D|-----------------|-----------------|-----------------|-----------------|

G|-----------------|-----------------|-----------------|-----------------|
D|-----------------|-----------------|-----------------|-----------------|
A|-0---0---0---0-0-|---0-0---0---0---|-0---0---0---0---|-----------------|
D|-----------------|-----------------|-----------------|-----------------|

[Chorus 2]
G|-----------------|-----------------|-----------------|-----------------|
D|-----------------|-----------------|-----------------|-----------------|
A|-----------------|-----------------|-----------------|-----------------|
D|-0---0---0-0-0-0-|---0-0---0-0-0---|-7---7---7-7-7-7-|---7-7---7-7-7-7-|

G|-----------------|-----------------|-----------------|-----------------|
D|-----------------|-----------------|-----------------|-----------------|
A|-----------------|-----------------|-----------------|-----------------|
D|-8---8---8-8-8---|-8---8---8-8-8---|-3-3-3-3-3-3-3-/-|-7-7-7-7-7-7-3---|

G|-----------------|-----------------|-----------------|-----------------|
D|-----------------|-----------------|-----------------|-----------------|
A|-----------------|-----------------|-----------------|-----------------|
D|-0---0---0-0-0-0-|---0-0---0-0-0---|-7-7-7-7-7-7-7-7-|-7-7-7-7-7-7-7-7-|

G|-----------------|-----------------|-----------------|-----------------|
D|-----------------|-----------------|-----------------|-----------------|
A|-----------------|-----------------|-----------------|-----------------|
D|-8---8---8-8-8---|-8---8---8-8-8-\-|-3-3-3-3-3-3-3-3-|-3-3-3-3-3-3-3-3/|

G|-----------------|-----------------|
D|-----------------|-----------------|
A|-----------------|-----------------|
D|-7-7-7-7-7-7-7-7-|-7---7---x-x-x-0-|

[Breakdown]
G|--------------------|--------------------|--------------------|-----------------|
D|--------------------|--------------------|--------------------|-----------------|
A|--------------------|--------------------|--------------------|-----------------|
D|---0-13p12-12p0-0-8-|---0-13p12-12p0-0-7-|---0-13p12-12p0-0-3-|---3-3---6-6-6-0-|

G|--------------------|--------------------|--------------------|-----------------|
D|--------------------|--------------------|--------------------|-----------------|
A|--------------------|--------------------|--------------------|-----------------|
D|---0-13p12-12p0-0-8-|---0-13p12-12p0-0-7-|---0-13p12-12p0-0-3-|---3-3-/-6-6-6-0-|

G|--------------------|--------------------|--------------------|-----------------|
D|--------------------|--------------------|--------------------|-----------------|
A|--------------------|--------------------|--------------------|-----------------|
D|---0-13p12-12p0-0-8-|---0-13p12-12p0-0-7-|---0-13p12-12p0-0-3-|---3-3---6-6-6-0-|

G|-----------------|-----------------|-----------------|-----------------|
D|-----------------|-----------------|-----------------|-----------------|
A|-----------------|-----------------|-----------------|-----------------|
D|---0-----------8-|---0-----------7-|---0-----------3-|---3-3---6-6-6-0-|

[Bridge]
G|-----------------|-----------------|-----------------|-----------------|
D|-----------------|-----------------|-----------------|-----------------|
A|-----------------|-----------------|-----------------|-----------------|
D|---0-----------8-|---0-----------7-|---0-----------5-|---0-3p0-1p0-3-0-|

G|-----------------|-----------------|-----------------|-----------------|
D|-----------------|-----------------|-----------------|-----------------|
A|-----------------|-----------------|-----------------|-----------------|
D|---0-----------8-|---0-----------7-|---0-----------5-|---0-3p0-1p0-3-0-|

G|-----------------|-----------------|-----------------|-----------------|
D|-----------------|-----------------|-----------------|-----------------|
A|-----------------|-----------------|-----------------|-----------------|
D|---0-----------8-|---0-----------7-|---0-----------5-|---0-3p0-1p0-3-0-|

G|-----------------|-----------------|-----------------|-----------------|
D|-----------------|-----------------|-----------------|-----------------|
A|-----------------|-----------------|-----------------|-----------------|
D|---0-----------8-|---0-----------7-|---0-----------5-|---0-3p0-1p0-3-0-|

G|-----------------|-----------------|-----------------|-----------------|
D|-----------------|-----------------|-----------------|-----------------|
A|-----------------|-----------------|-----------------|-----------------|
D|---0-----------8-|---0-----------7-|---0-----------3-|---3-3---6-6-6-0-|

G|-----------------|-----------------|-----------------|-----------------|
D|-----------------|-----------------|-----------------|-----------------|
A|-----------------|-----------------|-----------------|-----------------|
D|---0-----------8-|---0-----------7-|---0-----------3-|---3-3---6-6-6-0-|

G|-----------------|-----------------|-----------------|-----------------|
D|-----------------|-----------------|-----------------|-----------------|
A|-----------------|-----------------|-----------------|-----------------|
D|---0-----------8-|---0-----------7-|---0-----------3-|---3-3---6-6-6-0-|

G|-----------------|-----------------|-----------------|-----------------|
D|-----------------|-----------------|-----------------|-----------------|
A|-----------------|-----------------|-----------------|-----------------|
D|---0-----------8-|---0-----------7-|---0-----------5-|---0-3p0-1p0-3-0-|

G|-----------------|-----------------|-----------------|-----------------|
D|-----------------|-----------------|-----------------|-----------------|
A|-----------------|-----------------|-----------------|-----------------|
D|---0-----------8-|---0-----------7-|---0-----------5-|---0-3p0-1p0-3-0-|

G|-----------------|-----------------|-----------------|-----------------|
D|-----------------|-----------------|-----------------|-----------------|
A|-----------------|-----------------|-----------------|-----------------|
D|---0-----------8-|---0-----------7-|---0-----------5-|---0-3p0-1p0-3-0-|

G|-----------------|-----------------|-----------------|-----------------|
D|-----------------|-----------------|-----------------|-----------------|
A|-----------------|-----------------|-----------------|-----------------|
D|---0-----------8-|---0-----------7-|---0-----------5-|---0-3p0-1p0-3-5-|

G|-----------------|-----------------|-----------------|-----------------|
D|-----------------|-----------------|-----------------|-----------------|
A|-----------------|-----------------|-----------------|-----------------|
D|---0-3p0-1p0-3-5-|---0-3p0-1p0-3-5-|---0-3p0-1p0-3-5-|---0-3p0-1p0-3-0-|

[Interlude]
G|-----------------|-----------------|-----------------|-----------------|
D|-----------------|-----------------|-----------------|-----------------|
A|-----------------|-----------------|-----------------|-----------------|
D|-----------------|-----------------|-----------------|---------0-0-0-0-|

G|-----------------|-----------------|-----------------|-----------------|
D|-----------------|-----------------|-----------------|-----------------|
A|-----------------|-----------------|-----------------|-----------------|
D|-----------------|-----------------|-----0-----0-----|-----------------|

[Chorus 3]
G|-----------------|-----------------|-----------------|-----------------|
D|-----------------|-----------------|-----------------|-----------------|
A|-----------------|-----------------|-----------------|-----------------|
D|-0---0---0-0-0-0-|---0-0---0-0-0---|-7-7-7-7-7-7-7-7-|-7-7-7---7-7-7-7-|

G|-----------------|-----------------|-----------------|-----------------|
D|-----------------|-----------------|-----------------|-----------------|
A|-----------------|-----------------|-----------------|-----------------|
D|-8---8---8-8-8-8-|-8---8---8-8-8---|-3-3-3-3-3-3-3-/-|-7-7-7-7-7-7-3---|

G|-----------------|-----------------|-----------------|-----------------|
D|-----------------|-----------------|-----------------|-----------------|
A|-----------------|-----------------|-----------------|-----------------|
D|-0---0---0-0-0-0-|---0-0---0-0-0---|-7-7-7-7-7-7-7-7-|-7-7-7---7-7-7-7-|

G|-----------------|-----------------|-----------------|-----------------|
D|-----------------|-----------------|-----------------|-----------------|
A|-----------------|-----------------|-----------------|-----------------|
D|-8---8---8-8-8-8-|-8---8---8-8-8---|-3-3-3-3-3-3-3-3-|-3-3-3-3-3-3-3-3/|

G|-----------------|-----------------|
D|-----------------|-----------------|
A|-----------------|-----------------|
D|-7-7-7-7-7-7-7-7-|-7---7---x-x-x-0-|

[Post Chorus]
G|--------------------|--------------------|--------------------|-----------------|
D|--------------------|--------------------|--------------------|-----------------|
A|--------------------|--------------------|--------------------|-----------------|
D|---0-13p12-12p0-0-8-|---0-13p12-12p0-0-7-|---0-13p12-12p0-0-3-|---3-3---6-6-6-0-|

G|--------------------|--------------------|--------------------|-----------------|
D|--------------------|--------------------|--------------------|-----------------|
A|--------------------|--------------------|--------------------|-----------------|
D|---0-13p12-12p0-0-8-|---0-13p12-12p0-0-7-|---0-13p12-12p0-0-3-|---3-3---6-6-6-0-|

G|--------------------|--------------------|--------------------|-----------------|
D|--------------------|--------------------|--------------------|-----------------|
A|--------------------|--------------------|--------------------|-----------------|
D|---0-13p12-12p0-0-8-|---0-13p12-12p0-0-7-|---0-13p12-12p0-0-3-|---3-3---6---6---|

[Outro]
G|-----------------|-----------------|-----------------|-----------------|
D|-----------------|-----------------|-----------------|-----------------|
A|-----------------|-----------------|-----------------|-----------------|
D|-----------------|-----------------|-----------------|-----------------|

G|-----------------|-----------------|-----------------|-----------------|
D|-----------------|-----------------|-----------------|-----------------|
A|-----------------|-----------------|-----------------|-----------------|
D|-----------------|-----------------|-----------------|-----------------|

G|-----------------|-----------------|-----------------|-----------------|
D|-----------------|-----------------|-----------------|-----------------|
A|-----------------|-----------------|-----------------|-----------------|
D|-0-----5------7--|--0-----5------8-|-----0-----8-----|-7---7---3---3---|

G|-----------------|-----------------|-----------------|---------------------|
D|-----------------|-----------------|-----------------|---------------------|
A|-----------------|-----------------|-----------------|---------------------|
D|-0-----5------7--|--0-----5------8-|-----0-----8-----|-10-10-10-10-7-7-7-7-|

G|-----------------|-----------------|-----------------|-----------------|
D|-----------------|-----------------|-----------------|-----------------|
A|-----------------|-----------------|-----------------|-----------------|
D|-0-----5------7--|--0-----5------8-|-----0-----8-----|-7---7---3---3---|

G|-----------------|-----------------|-----------------|-----------------|
D|-----------------|-----------------|-----------------|-----------------|
A|-----------------|-----------------|-----------------|-----------------|
D|-0-----0------0--|--0-----0------0-|-0-0-0-0-0-0-0---|-----------------|


************************************

| x   Dead note
| /   Slide up
| \   Slide down
| p   Pull off

************************************

            
            
Suggest correction
Creating personal tab
Creating personal tab
You can edit any tab online and save it as your Personal.

You can edit, replace or remove any tab part or add personal notes – all changes will be seen only by you.

Personal tabs can be accessed anytime from any device, even offline.
Learn more »
Give kudos to tab author, rate the tab!
1 2 3 4 5
comments
print report bad tab
guest
You may want to rate the tab now too:
select rating
Wanna post a correction for this tab? Suggest correction