Oops, an error
Loading. Please wait.

Hand Held High bass

2,666 views 3 this week
no commentswrite comment
1 2 3 4 5
2 more votes to show rating
add to favorites
×
Save as Personal and add changes to this tab that will be seen only by you. Learn more ›
×
You can save this tab as Personal to edit and correct it or add notes. All changes will be seen only by you. Learn more »
launch autoscroll
font size
0
reset
guitar tuner
edit
Autoscroll
slow
fast
+/-
esc
set tempo
stop
Linkin Park
Hands Held High - Bass Tab

Whole thing tabbed by ear, my first tab too
Listen for timings....

Drop-D Tuning



Intro on guitar, come in at about 0.09

Verse (note: 11's in the verse not 1's!!)
G|---------------------------------------|
D|---------------------------------------|
A|---------------------------------------|
D|-44-4-4-22-2--2-00-0-0-0-1111-11--11/--|

G|-----------------------------------|
D|-----------------------------------|
A|-------------------------44444444--|
D|-44-4-4-22-2--2-00-0-0-0-----------|

Chorus
G|----------------------------------|
D|----------------------------------|
A|----------00-0-0------------------|
D|-44-4-4-4--------2-00-00-00-00-00-|

G|-------------------------------|
D|-------------------------------|
A|----------00-0-0---------------|
D|-44-4-4-4--------2-00-00-00-00-|


G|------------------------|-------------------|
D|------------------------|-------------------|
A|--------4/6---------4/6-|--------4/6-----6--|
D|--4--4------444-4-4-----|--4--4------44-4---|
            ^           ^            ^     ^
  If you want you can bend this note up slightly aswell


Verse (again...11's)
G|--------------------------------------|
D|--------------------------------------|
A|--------------------------------------|
D|-44-4-4-22-2--2-00-0-0-0-1111-11--11\-|

G|----------------------------------|
D|----------------------------------|
A|-------------------------44444444-|
D|-44-4-4-22-2--2-00-0-0-0----------|


Chorus
G|----------------------------------| \
D|----------------------------------|  \
A|----------00-0-0------------------|   \
D|-44-4-4-4--------2-00-00-00-00-00-|    \
					   x2
G|-------------------------------|       /
D|-------------------------------|      /
A|----------00-0-0---------------|     /
D|-44-4-4-4--------2-00-00-00-00-|    /


G|------------------------|-------------------|
D|------------------------|-------------------|
A|--------4/6---------4/6-|--------4/6-----6--|
D|--4--4------444-4-4-----|--4--4------44-4---|

                                 
                               this part x2
Bridge/Heavy Bit           /                 \
G|-----------------------|---------------------|
D|-----------------------|---------------------|
A|-----------------------|---------------------|
D|-0-21-21-0h1p0-21-4320-|-21-21-0h1p0-21-4320-|

then
G|---------------|
D|---------------|
A|---------------|
D|-21-21-0-21-21-|


Chorus
G|----------------------------------| \
D|----------------------------------|  \
A|----------00-0-0------------------|   \
D|-44-4-4-4--------2-00-00-00-00-00-|    \
					   x2
G|-------------------------------|       /
D|-------------------------------|      /
A|----------00-0-0---------------|     /
D|-44-4-4-4--------2-00-00-00-00-|    /

then play an open D string and hold it...
G|-------|
D|-------|
A|-------|
D|-0~----|

                               this part x6
Solo                       /                 \
G|-----------------------|---------------------|
D|-----------------------|---------------------|
A|-----------------------|---------------------|
D|-0-21-21-0h1p0-21-4320-|-21-21-0h1p0-21-4320-|

then.....           ....thats it!
G|--------------------|
D|--------------------|
A|--------------------|
D|-21-21-000-21-222-0-|
Suggest correction
Creating personal tab
Creating personal tab
You can edit any tab online and save it as your Personal.

You can edit, replace or remove any tab part or add personal notes – all changes will be seen only by you.

Personal tabs can be accessed anytime from any device, even offline.
Learn more »
Give kudos to tab author, rate the tab!
1 2 3 4 5
comments
print report bad tab
guest
You may want to rate the tab now too:
select rating
Wanna post a correction for this tab? Suggest correction