Oops, an error
Loading. Please wait.

Hands Held High Tab

version 1
version 1

Interactive

26,787 views 1 this week
1 commentread comment
1 2 3 4 5
x 14
add to favorites
launch autoscroll
font size
0
reset
how to read this tab
guitar tuner
Autoscroll
slow
fast
+/-
esc
set tempo
stop
Help us to improve Ultimate-Guitar.com Take our survey!
×
Author
Right, so this is my first tab, it works for me.

Tuning: Standard
A little bit of delay

Riff 1
e|--5-----5--5-----|
B|----5~---5--5----|
G|-----------------|
D|-----------------|
A|-----------------|
E|-----------------|

Riff 2
e|--7-----7--7-----|
B|----5~---5--5----|
G|-----------------|
D|-----------------|
A|-----------------|
E|-----------------|

The song basically consists of riff 1, with riff 2 every now and then, listen to it to get the idea.
Suggest correction
comments
print report bad tab
1 comment total.
0 reply
KirkMetallica 50 Jun 25, 2009 01:48 PM

Sounds like there should be another 5 on the B,but that may be down to reverb or delay :D
Otherwise, nice tab =]

guest
You may want to rate the tab now too:
select rating
Wanna post a correction for this tab? Suggest correction