Oops, an error
Loading. Please wait.

Hybrid Theory Bass Tab

11,580 views 9 this week
6 commentsread comments
1 2 3 4 5
accurate
x 22
add to favorites
launch autoscroll
font size
0
reset
guitar tuner
Autoscroll
slow
fast
+/-
esc
set tempo
stop
Help us to improve Ultimate-Guitar.com Take our survey!
×
Hybrid Theory Album

Track 01
(Papercut)
Standard Tuning

(Intro)
G:-------------|-------------|-------------|-------------|
D:-------------|-------------|-------------|-------------| 
A:----6-7-6----|----6-7-6----|----6-7-6----|----6-7-6----|
E:9-9-------9-7|9-9-------9-7|9-9-------9-7|9-9-------9-7|

G:---------------------------|-----------------|
D:---------------------------|-----------------|
A:----------------12-12-11-11|------12-12-11-11|
E:10-10-12-9-9-9-------------|9-9-9------------|

G:-----------------|-----------------|
D:-----------------|-----------------|
A:------12-12-11-11|------12-12-11-11|
E:9-9-9------------|9-9-9------------|

G:---------------------------|-----------------|
D:---------------------------|-----------------|
A:----------------12-12-11-11|------12-12-11-11|
E:10-10-12-9-9-9-------------|9-9-9------------|

G:---------------------------|-----------------|
D:---------------------------|-----------------|
A:----------------12-12-11-11|------12-12-11-11|
E:10-10-12-9-9-9-------------|9-9-9------------|

(Chorus)
G:-------------|-------------|-------------|-------------|
D:-------------|-------------|-------------|-------------| 
A:----6-7-6----|----6-7-6----|----6-7-6----|----6-7-6----|
E:9-9-------9-7|9-9-------9-7|9-9-------9-7|9-9-------9-7|

(Verse)
G:---------------------------|--------------------------|
D:---------------------------|--------------------------|
A:----------------12-12-11-11|---------------12-12-11-11|
E:10-10-12-9-9-9-------------|10-10-12-9-9-9------------|

G:---------------------------|--------------------------|
D:---------------------------|--------------------------|
A:----------------12-12-11-11|---------------12-12-11-11|
E:10-10-12-9-9-9-------------|10-10-12-9-9-9------------|

G:---------------------------|-----------------|
D:---------------------------|-----------------|
A:----------------12-12-11-11|------12-12-11-11|
E:10-10-12-9-9-9-------------|9-9-9------------|

G:---------------------------|--------------------------|
D:---------------------------|--------------------------|
A:----------------12-12-11-11|---------------12-12-11-11|
E:10-10-12-9-9-9-------------|10-10-12-9-9-9------------|

G:-------------|-------------|-------------|-------------|
D:-------------|-------------|-------------|-------------|  x2
A:----6-7-6----|----6-7-6----|----6-7-6----|----6-7-6----|
E:9-9-------9-7|9-9-------9-7|9-9-------9-7|9-9-------9-7|


G:--------------|
D:--------------|  x4
A:--------------|
E:10-10-12-9-9-9|

G:----------------------------------------|
D:----------------------------------------|  x7
A:12-12-12---12-12-14-14---9-9-9---9-9-9-9|
E:----------------------------------------|

G:-----------------------------------------------|
D:-----------------------------------------------|
A:12-12-12---12-12-14-14---12-12-12---12-12-14-14|
E:-----------------------------------------------|

G:-------------------------|
D:------11-----------------|
A:12-11--------------------|
E:-----------10-10-12-9-9-9|

Track 02
(One Step Closer)
Standard Tuning 

(Intro)
G:---------------|---------------|
D:---------------|---------------|  x2
A:----6-7-7-6-4--|----6-7-----4--|
E:4-4-----------7|4-4-----4-4---7|
  1 + 2 + 3 + 4 + 1 + 2 + 3 + 4 +

(Verse)
G:---------------|---------------|
D:---------------|---------------|  x4
A:----6-7-----4--|----6-7-7-6-4--|
E:4-4-----4-4---7|4-4-----------7|
  1 + 2 + 3 + 4 + 1 + 2 + 3 + 4 +

(Chorus)
G:--6-4----------|
D:------6/7-4-6--|  x4
A:4-------------5|
E:---------------|
  1 + 2 + 3 + 4 +

G:---------------|---------------|
D:---------------|---------------|  x4
A:----6-7-----4--|----6-7-7-6-4--|
E:4-4-----4-4---7|4-4-----------7|
  1 + 2 + 3 + 4 + 1 + 2 + 3 + 4 +

G:--6-4----------|
D:------6/7-4-6--|  x3
A:4-------------5|
E:---------------|
  1 + 2 + 3 + 4 +

G:---------------|---------------|
D:---------------|---------------|
A:5-5-5-5-5-5-5-5|4--------------|
E:---------------|---------------|
  1 + 2 + 3 + 4 + 1 + 2 + 3 + 4 +

(Bridge)
G:-----------------------|
D:-----------------------|  x8
A:4-3-3-3--7-6-5-6/ 12\-4|
E:-----------------------|
  1 + 2 + 1 + 2 + 1 + 2 +

G:--6-4----------|
D:------6/7-4-6--|  x3
A:4-------------5|
E:---------------|
  1 + 2 + 3 + 4 +

(Outro)
G:---------------|--------------|
D:---------------|--------------|
A:5-5-5-5-5-5-5-5|4-------------|
E:---------------|--------------|
  1 + 2 + 3 + 4 + 1 + 2 + 3 + 4 +


Track 03
(With you)
Standard Tuning
Bass Starts at (0.12)


(Intro)
G:-------------------|
D:-------------------|  x4
A:-------------------|
E:7-7-7-8-7-7---7-7-7|

G:------------------|
D:------------------|
A:------------------|
E:12----7----10----5|

(0.50)
G:-------------------|------------------|
D:-------------------|------------------|
A:-------------------|------------------|
E:7-7-7-8-7-7---7-7-7|12----7----10----5|

(1.40)
G:-------------------|
D:-------------------|  x8
A:-------------------|
E:7-7-7-8-7-7---7-7-7|

(1.59)
G:------------------|
D:------------------|  x2
A:------------------|
E:12----7----10----5|

(2.31) (Bridge)
G:------------------|
D:------------------|  x2
A:------------------|
E:12----7----10----5|

(Chorus)
G:------------------|
D:------------------|  x2
A:------------------|
E:12----7----10----5|



Track 04
(Points of Authority)
Standard Tuning
Bass Starts at (0.20)

(Intro)
G:----------|----------|----------|----------|
D:----------|----------|----------|----------|  x2
A:6-6-7-7--7|4--6--6--7|4-6-6--7-7|7-66-44--7|
E:----------|----------|----------|----------|

(Guitar)

(Verse)
G:----------|----------|----------|----------|
D:----------|----------|----------|----------|  x2
A:6-6-7-7--7|4--6--6--7|4-6-6--7-7|7-66-44--7|
E:----------|----------|----------|----------|

G:----------|----------|----------|----------|
D:----------|----------|----------|----------|
A:6-6-7-7--7|4--6--6--7|4-6-6--7-7|7--6--4--7|
E:----------|----------|----------|----------|


(Chorus)
G:8---------|9---------|8---------|9---------|
D:8---------|9---------|8---------|9---------|  x2
A:6---------|7---------|6---------|7---------|
E:----------|----------|----------|----------|

G:----------|----------|----------|----------|
D:----------|----------|----------|----------|
A:6-6-7-7--7|4--6--6--7|4-6-6--7-7|7-66-44--7|
E:----------|----------|----------|----------|

(Guitar)

G:----------|----------|----------|----------|
D:----------|----------|----------|----------|  x2
A:6-6-7-7--7|4--6--6--7|4-6-6--7-7|7-66-44--7|
E:----------|----------|----------|----------|


(1.21)
G:----------|----------|----------|----------|
D:----------|----------|----------|----------|
A:6-6-7-7--7|4--6--6--7|4-6-6--7-7|7--6--4--7|
E:----------|----------|----------|----------|


(Chorus)
G:8---------|9---------|8---------|9---------|
D:8---------|9---------|8---------|9---------|  x2
A:6---------|7---------|6---------|7---------|
E:----------|----------|----------|----------|


G:----------|----------|----------|----------|
D:----------|----------|----------|----------|  x4
A:6-6-7-7--7|4--6--6--7|4-6-6--7-7|7-66-44--7|
E:----------|----------|----------|----------|

G:8---------|9---------|8---------|9---------|      |----------|
D:8---------|9---------|8---------|9---------|  x4  |----------|
A:6---------|7---------|6---------|7---------|      |6-6-4-4--7|
E:----------|----------|----------|----------|      |----------|

G:----------|----------|----------|----------|
D:----------|----------|----------|----------|  x2
A:6-6-7-7--7|4--6--6--7|4-6-6--7-7|7-66-44--7|
E:----------|----------|----------|----------|


G:----------|----------|----------|----------|
D:----------|----------|----------|----------|  x4
A:6-6-7-7--7|4--6--6--7|4-6-6--7-7|7--4--6--7|
E:----------|----------|----------|----------|


(Outro)
G:----------|----------|----------|-----------|
D:----------|----------|----------|-----------|
A:---7--7---|---6--4--7|4-6-6--7-7|66-44--7--4|
E:----------|----------|----------|-----------|


Track 05
(Crawling)
Standard Tuning
No bass until (0.14)

(Intro)        |--------Chorus---------|
G:-------------|-----------|-----------|
D:-------------|-----------|-----------|
A:4-7---7-4----|----------9|----------9|
E:----7-----7-5|9--12--7---|9--12--7---|

(1.10)
                             |---------Chorus--------|
G:-------------|-------------|-----------|-----------|
D:-------------|-------------|-----------|-----------|
A:4-7---7-4----|4-7---7-4----|----------9|----------9|
E:----7-----7-5|----7-----7-5|9--12--7---|9--12--7---|

(2.04)
                 (Chorus)
G:-------------|-------------|
D:-------------|-------------|  X5
A:4-7---7-4----|----------9--|
E:----7-----7-5|9--12--7-----|
               |-----x2------|

(Outro)
G:------------|
D:------------|
A:11-11-11----|
E:---------12-|


Track 06
(Runaway)
Standard Tuning
No bass until (0.17)

(Intro)
G:----------------|
D:----------------|  x2
A:2-2/5-5---------|
E:--------3-3--5-5|

(Verse I)
G:--------------------------------|
D:--------------------------------|
A:2---2---2--4-5---2--------------|
E:--3---3--------3---3--0-3--0-3/5|

(Chorus)
G:----------------|
D:----------------|  x4
A:2-2/5-5---------|
E:--------3-3--5-5|

(Verse II)
G:-------------------------------|
D:--------------------------1p2--|
A:2---2---2--4-5---2-------------|
E:--3---3--------3---3--0-3-----3|

G:----------------|
D:----------------|  x4
A:2-2/5-5---------|
E:--------3-3--5-5|

(Bridge)
G:---------|---------|---------|---------|
D:---------|---------|---------|---------|  x4
A:2-2-3-2-2|2-2-3-3-3|2-2-3-2-2|2-2-3-3-3|
E:---------|---------|---------|---------|

G:-------------------|
D:-------------------|  x8
A:2-2/5-5------------|
E:--------3-3--5-5---|


Track 07
(By Myself)
Standard Tuning

Intro (0.01)
G:-----|
D:-----|
A:-----|
E:-4-4-|
B:-----|

(0.03)
G:-------------|
D:-------------|
A:-------------|  x4
E:----------4-4|
B:--3-3-3-3----|

(0.09)
G:------------|
D:------------|
A:------------|  x4
E:------------|
B:3---3---3---|

Verse 1 (0.28)
G:------------|
D:------------|
A:------------| 
E:--------4---|
B:3-3-3-3-----|

G:------------|
D:------------|
A:------------|  x4
E:---------4-4|
B:3-3-3-3-----|

Chorus (0.47)
G:------------|
D:------------|
A:------------|  x4
E:---------7--|
B:3-3-3-3-----|

Chorus (0.49)
G:------------|
D:------------|
A:------------|  x12
E:------------|
B:4----0----7-|

G:------------|
D:------------|
A:------------|  x8
E:4-----------|
B:------------|

(1.26)
G:------------|
D:------------|
A:------------|  
E:4----4------|
B:------------|

(1.27)
G:------------|
D:------------|
A:------------|  x3
E:---------4-4|
B:3-3-3-3-----|

(1.35)
G:------------|
D:------------|
A:------------|  x4
E:---------7--|
B:3-3-3-3-----|

Chorus (1.37)
G:------------|
D:------------|
A:------------|  x4
E:------------|
B:4----0----7-|

Rest on Bridge

(2.12)
G:------------|
D:------------|
A:------------|  
E:4-----4-----|
B:------------|

(2.14)
G:------------|
D:------------|
A:------------|  x7
E:---------4-4|
B:3-3-3-3-----|

(2.30)
G:------------|
D:------------|
A:------------| 
E:---------7--|
B:3-3-3-3-----|

Chorus (2.33)
G:------------|
D:------------|
A:------------|  x7
E:------------|
B:4----0----7-|

(3.05)
G:------------|
D:------------|
A:------------|  
E:------------|
B:4-----0-----|


Track 08
(In The End)
Standard Tuning
No bass until (0.19)

(Intro)
G:-------------|
D:-------------|  x4
A:6---4---2---4|
E:-------------|

(Chorus)
G:---------------------|
D:---4-----------4-----|
A:6-----4--2---6---4--2|
E:-----------4---------|

G:-------------|
D:-------------|  x4
A:6---4---2---4|
E:-------------|

Chorus x1
Intro x2
G:---------------------|
D:---4-----------4-----|
A:6-----4--2---6---4--2|
E:-----------4---------|

Chorus x1


Track 09
(A Place for my Head)
Drop D Tuning (D, A, D, G)
No Bass until (0.14)

(Intro)
G:---------------------|
D:---------------------|
A:---------------------|
D:1-1---1-1---1-1---1-1|

(Verse)
G:-----------------------|
D:-----------------------|  x4
A:-----------------------|
D:1--1-1--1--4-4--6-6-6-6|

G:--------------------------|
D:--8-9-8--6----------------|  x4
A:6----------9-9--7-7-7--9-6|
D:--------------------------|

(Verse 2)
G:-----------------|
D:-----------------|
A:-----------------|  x2
D:1---4---1---4--\9|

G:--------------------------|
D:--8-9-8--6----------------|  x4
A:6----------9-9--7-7-7--9-6|
D:--------------------------|

(You try to take the best of me... )

G:--------------------------|
D:--8-9-8--6----------------|  x8
A:6----------9-9--7-7-7--9-6|
D:--------------------------|

(Bridge)
G:--------------------------------|
D:-------------------------------4|  x8
A:6-6--6-6-6-6--6-6-6--6-6-6-6-4--|
D:--------------------------------|

(Outro)
G:------|
D:------|
A:-6--6-|
D:------|


Track 10
(Forgotten)
I play it in Standard

(Intro)
G:--------------|
D:--------------|  x3
A:7-6-6-6--7-6-6|
E:--------------|

G:-------------------|
D:------------------4|
A:7-6-6-6--7-6-6--6--|
E:-------------------|

(Verse)
G:----------------|
D:----------------|  x4
A:6-6-7-6---------|
E:--------7--2-4-2|

G:-------------------|
D:------------------4|
A:7-6-6-6--7-6-6--6--|
E:-------------------|

(Chorus)
G:-------------------|
D:-------------------|  x4
A:6--6-7-6----1-1-2-2|
E:---------7---------|

G:----------------|
D:----------------|  x5
A:6-6-7-6---------|
E:--------7--2-4-2|

G:--------------|
D:--------------|  x4
A:7-6-6-6--7-6-6|
E:--------------|

(Chorus)
G:-------------------|
D:-------------------|  x4
A:6--6-7-6----1-1-2-2|
E:---------7---------|

(Bridge)
G:-----------------|
D:-----------------|
A:-----------------|
E:4-4-2-4-0--0-2-4-|

G:---------------------|
D:---------------------|  x6
A:---------------------|
E:4-4-2-4-0--2-0-2-4---|

G:-------------------|
D:-------------------|  x7
A:6--6-7-6----1-1-2-2|
E:---------7---------|

(Outro)-no bass


Track 11
(Cure For the Itch)-No Bass


Track 12
(Pushing me Away)
Standard Tuning

(Intro)
G:--------------------|
D:---4----------------|  x3
A:6-----4------2-2----|
E:---------4-4-----2-2|

G:-----------|
D:-----------|  x2
A:2-4--------|
E:----4-2-4-0|

G:--------------------|
D:---4----------------|  x2
A:6-----4------2-2----|
E:---------4-4-----2-2|

G:-----------------------------------------------------|
D:-----------------------------------------------------|
A:--2------1---2--------4--2--4---------1--2--4-----4-2|
E:4---2--4---2---2--2-4---------4--1--2---------1-2----|

G:--------------------|
D:---4----------------|  x2
A:6-----4------2-2----|
E:---------4-4-----2-2|

G:-----------|
D:-----------|  x2
A:2-4--------|
E:----4-2-4-0|

Intro x3

(Outro)
G:--------|
D:--------|
A:------4-|
E:-6------|


Thats the entire Hybrid Theory album.
Please rate after you learn it. Good Luck
Tabbed by:
_TheBassist01_
Suggest correction
comments
print report bad tab
6 comments total. Showing first comments.
+1 reply
bassgeezer 10 wrote on May 27 2004, 12:00 am

This is a really good tab

+1 reply
mezmerize 10 wrote on August 20 2005, 12:00 am

good tab

+1 reply
TheClincher 102 wrote on October 14 2006, 08:52 pm

wrong bass type and tunings

guest
You may want to rate the tab now too:
select rating
Please do not post tabs as comments. Select "correction" instead!