Oops, an error
Loading. Please wait.

Hybrid Theory Tab

version 1
version 1

Album

57,333 views 6 this week
23 commentsread comments
1 2 3 4 5
x 17
add to favorites
launch autoscroll
font size
0
reset
how to read this tab
guitar tuner
Autoscroll
slow
fast
+/-
esc
set tempo
stop
Help us to improve Ultimate-Guitar.com Take our survey!
×
Author
Song:1
Title:Papercut
Tunning:Dropped D one half step down
C# G# C# F# A# D#

Main Riff:
x|-10----12----13----12----10----12----13----12---------|x
x|----10----10----10----10----10----10----10----10------|x
x|------------------------------------------------------|x
x|------------------------------------------------------|x
x|------------------------------------------------------|x
x|------------------------------------------------------|x

Intro:
Play 4 times
x|----------------------------------------|x
x|----------------------------------------|x
x|---------10---9---5---------------------|x
x|-0-0-----10---9---5---------------------|x
x|-0-0-----8----7---3---------------------|x
x|-0-0------------------------------------|x

Verse
x|-------------------------|x
x|-------------------------|x
x|-------------------------|x
x|-1-1-3-0-0-0--8-88-8-7-7-|x  <---- 1st, 5th and 7th time
x|-1-1-3-0-0-0--8-88-8-7-7-|x
x|-1-1-3-0-0-0--8-88-8-7-7-|x 

x|-------------------|x
x|-------------------|x
x|-------------------|x
x|-0-0-0--8-88-8-7-7-|x  <---- 2nd, 3rd and 4th time
x|-0-0-0--8-88-8-7-7-|x
x|-0-0-0--8-88-8-7-7-|x 

Chorus
(Another guitar can play the Main Riff as background)
x|----------------------------------------|x
x|----------------------------------------|x
x|---------10---9---5---------------------|x
x|-0-0-----10---9---5---------------------|x
x|-0-0-----8----7---3---------------------|x
x|-0-0------------------------------------|x

After the chours play:

Verse 2:
x|-------------------------|x
x|-------------------------|x
x|-------------------------|x
x|-1-1-3-0-0-0--8-88-8-7-7-|x   <------1st,2nd,3rd,4th,
x|-1-1-3-0-0-0--8-88-8-7-7-|x             5th,7th and 8th time
x|-1-1-3-0-0-0--8-88-8-7-7-|x

x|-------------------|x
x|-------------------|x
x|-------------------|x
x|-0-0-0--8-88-8-7-7-|x  <---- 6th time
x|-0-0-0--8-88-8-7-7-|x
x|-0-0-0--8-88-8-7-7-|x 

 PLAY THE CHORUS 2 TIMES AND END WITH
   x|----------------------|x         
   x|----------------------|x  
   x|----------------------|x 
   x|-1-1-3-0-0-0-0-0-0-0-0|x
   x|-1-1-3-0-0-0-0-0-0-0-0|x
   x|-1-1-3-0-0-0-0-0-0-0-0|x

"The sun goes down...."
x|---------------------------------|x
x|---------------------------------|x
x|---------------------------------|x <---- Play 7 times
x|-8-88-8-8-8/10-55-5-5-55-5-5-5-5-|x
x|-8-88-8-8-8/10-55-5-5-55-5-5-5-5-|x
x|-8-88-8-8-8/10-55-5-5-55-5-5-5-5-|x

The song ends with:
   x|--------------|x        
   x|--------------|x
   x|--------------|x
   x|-1-1-3-0-0-0--|x
   x|-1-1-3-0-0-0--|x
   x|-1-1-3-0-0-0--|x

Song 2:
Title: One Step Closer
Tunning:Dropped D one half step down
C# G# C# F# A# D#

Intro:
x|-----------------------|x
x|-----------------------|x
x|-----------------------|x
x|-----------------------|x  <---- Play this 4 times.
x|--------*7-------------|x
x|-0-*5-0----8-*7-0-3----|x

then........Verse 1
x|-------------------|x
x|-------------------|x
x|------9-------5----|x
x|-0-0--x--8-7--x----|x <----- Play 12 times.
x|-0-0--7--8-7--3----|x
x|-0-0-----8-7-------|x
   
x|-----------------------|x
x|-----------------------|x
x|-----------------------|x
x|-5-x-x--x-5--x-x--x-5--|x
x|-5-x-x--x-5--x-x--x-5--|x
x|-5-x-x--x-5--x-x--x-5--|x
..."Just like before"..       

Chorus
x|------------------------------|x
x|------------------------------|x
x|------------------------------|x
x|-0-0-12-10-10-7-8--8-.5-7-7-3-|x  <------2 times.
x|-0-0-12-10-10-7-8--8--5-7-7-3-|x
x|-0-0-12-10-10-7-8--8--5-7-7-3-|x

Verse 2:
x|-------------------|x
x|-------------------|x
x|------9-------5----|x
x|-0-0--x--8-7--x----|x <----- Play 8 times.
x|-0-0--7--8-7--3----|x
x|-0-0-----8-7-------|x

Chorus:
x|------------------------------|x
x|------------------------------|x
x|------------------------------|x
x|-0-0-12-10-10-7-8--8-.5-7-7-3-|x  <------play 4 times.
x|-0-0-12-10-10-7-8--8--5-7-7-3-|x
x|-0-0-12-10-10-7-8--8--5-7-7-3-|x


   x|----|x        
   x|----|x
   x|----|x
   x|-1--|x   <----8 times.
   x|-1--|x
   x|-1--|x

x|-----------------------|x
x|-----------------------|x
x|-----------------------|x
x|-----------------------|x  <---- Play this 4 times.
x|--------*7-------------|x
x|-0-*5-0----8-*7-0-3----|x

continue with:
x|----------------------|x
x|----------------------|x
x|----------------------|x
x|-1-0-0-0-0-0-3-1-0--6-|x   <---8 times.
x|-1-0-0-0-0-0-3-1-0--6-|x
x|-1-0-0-0-0-0-3-1-0--6-|x

continue the song with:
x|------------------------------|x
x|------------------------------|x
x|------------------------------|x
x|-0-0-12-10-10-7-8--8-.5-7-7-3-|x  <------4 times.
x|-0-0-12-10-10-7-8--8--5-7-7-3-|x
x|-0-0-12-10-10-7-8--8--5-7-7-3-|x

and finish with:
   x|----|x        
   x|----|x
   x|----|x
   x|-1--|x   <----8 times.
   x|-1--|x
   x|-1--|x

Song 3:
Title: With You
Tunning:Dropped D


Intro:(pm)
x|-------------------------------|x
x|-------------------------------|x
x|-------------------------4-----|x  <---- 4 times
x|-2--2-2-3--3-2--2--2--2--------|x
x|-2--2-2-3--3-2--2--2--2--------|x
x|-2--2-2-3--3-2--2--2--2--------|x

Verse:
x|--16--15-----------|-------------------15------------|x
x|----------16--13---|-16--13----------------16--------|x
x|-------------------|--------13-----15----------------|x
x|-------------------|-----------13--------------------|x     <----2 times
x|-------------------|---------------------------------|x
x|-------------------|---------------------------------|x



Chorus:
x|---------------|x
x|---------------|x
x|---------------|x   
x|-5--12--10--8--|x   <<----  x1 time
x|-5--12--8---8--|x
x|-5--12--8---8--|x

Pre-Chorus:(pm)
x|-------------------------------|x
x|-------------------------------|x
x|-------------------------4-----|x  <---- 8 times
x|-2--2-2-3--3-2--2--2--2--------|x
x|-2--2-2-3--3-2--2--2--2--------|x
x|-2--2-2-3--3-2--2--2--2--------|x

Song 4:
Title:Points Of Authority
Tunning:Dropped D one half step down
C# G# C# F# A# D#

Intro:
x|-----7-------7-------7-------7-------7-------7-------7-------7------------|x
x|---8---8---8---8---8---8---8---8---8---8---8---8---8---8---8---8----------|x
x|-9-------9-------9-------9-------9-------9-------9-------9----------------|x
x|--------------------------------------------------------------------------|x
x|--------------------------------------------------------------------------|x
x|--------------------------------------------------------------------------|x


x|--------------------------------------------------------------------------|x
x|--------------------------------------------------------------------------|x
x|--------------------------------------------------------------------------|x
x|-2-2-0h3-3-0h2-2h3-0h2-2-0h3-3-2-2-0-0h3--2-2-0h3-3-0h2-2h3-0h2-2-0h3-----|x
x|-2-2-0h3-3-0h2-2h3-0h2-2-0h3-3-2-2-0-0h3--2-2-0h3-3-0h2-2h3-0h2-2-0h3-----|x
x|-2-2-0h3-3-0h2-2h3-0h2-2-0h3-3-2-2-0-0h3--2-2-0h3-3-0h2-2h3-0h2-2-0h3-----|x

Verse:
x|------------------------------------------|x
x|------------------------------------------|x
x|------------------------------------------|x  <------Repeat 5 times
x|2-2-2h3-3--0h2-2h3--0h2-2-2h3--x-2-x-0-x-3|x
x|2-2-2h3-3--0h2-2h3--0h2-2-2h3--x-2-x-0-x-3|x
x|2-2-2h3-3--0h2-2h3--0h2-2-2h3--x-2-x-0-x-3|x

Chorus
x|---------------------------------------|x
x|---------------------------------------|x
x|4---5---4---5---4---5---4---5----------|x
x|2---3---2---3---2---3---2---3---2--0--3|x
x|2---3---2---3---2---3---2---3---2--0--3|x
x|2---3---2---3---2---3---2---3---2--0--3|x

Song 5:
Title: Crawling
Tunning:Dropped D one half step down
C# G# C# F# A# D#

Intro:(piano part)DJ plays this in different parts of the song.
x|----20--17-------------------------|x
x|------------20-18-17-18------------|x
x|-19--------------------------------|x
x|-----------------------------------|x
x|-----------------------------------|x
x|-----------------------------------|x

then.....    x|-----------------------------------|x
             x|-----------------------------------|x
             x|-----------------------------------|x
             x|-----------------------------------|x
             x|-----------------------------------|x
             x|--10*-10*-10*10*--10*-10*----------|x

Chorus:guitar 1
x|-----------------------------------|x
x|-----------------------------------|x
x|-----------------------------------|x
x|-0--8--3--10--7--------------------|x  <--- 2 times
x|-0--8--3--10--7--------------------|x
x|-0--8--3--10--7--------------------|x

Guitar 2
x|--------------------------------------------------------------------------|x
x|--------------------------------------------------------------------------|x
x|-11-\--5--/--10--\--9--/--12-\--11-\--5--/--10--\--9--/--12---------------|x
x|-x--\--x--/--x---\--x--/--x--\--x--\--x--/--x---\--x--/--x----------------|x
x|-9--\--3--/--8---\--7--/--10-\--9--\--3--/--8---\--7--/--10---------------|x
x|--------------------------------------------------------------------------|x
   X16   X16   X16   X12    X4    X16   X16   X16   X12    X4
   
Verse
Chorus(x4)

Song 6:
Title:Runaway  
Tunning:Dropped D one half step down
C# G# C# F# A# D#

Intro(x2)                                           Joe Hahn plays this 2nd time --. 
x|-------------------------------------------------|------------------------|x     |
x|-------------------------------------------------|------------------------|x <---|
x|-7--7-/-10--10-10--10-10-10-10--3--3-/-5--5-5--5-|------------------------|x
x|-7--7-/-10--10-10--10-10-10-10--3--3-/-5--5-5--5-|--2*--------------------|x
x|-5--5-/-8---8--8---8--8--8--8---1--1-/-3--3-3--3-|--------2*--------------|x
x|-------------------------------------------------|------------------------|x  

then...

x|--------------------------------------------------------------------------|x
x|--------------------------------------------------------------------------|x  
x|-------10--10-10--10-10-10-10-10--10--------------------------------------|x <--2 times 
x|-0--0--10--10-10--10-10-10-10-10--10-/-10--10-10--10----------------------|x
x|-0--0--8---8--8---8--8--8--8--8---8--/-10--10-10--10----------------------|x
x|-0--0-------------------------8---8--/-10--10-10--10----------------------|x

Nothing for verse;

Chorus:
x|--------------------------------------------------------------------------|x
x|--------------------------------------------------------------------------|x
x|-------10--10-10--10-10-10-10-10--10--------------------------------------|x
x|-0--0--10--10-10--10-10-10-10-10--10-/-10--10-10--10----------------------|x4 times
x|-0--0--8---8--8---8--8--8--8--8---8--/-10--10-10--10----------------------|x
x|-0--0-------------------------8---8--/-10--10-10--10----------------------|x

Bridge
x|------------------------|x
x|------------------------|x
x|------------------------|x
x|-0--0-0-1--1-0--0-0-0-1-|x
x|-0--0-0-1--1-0--0-0-0-1-|x
x|-0--0-0-1--1-0--0-0-0-1-|x

Song 7:
Title:By Myself
Tunning:Dropped D one half step down
C# G# C# F# A# D#

x|------------------|x
x|------------------|x
x|------------------|x
x|----------7-7--9*-|x  <--4 times
x|----------7-7-----|x
x|-1-1-1-1--7-7-----|x

and right after the last time....
                                      x|---------|x
                                      x|---------|x
                                      x|---------|x
                                      x|---------|x
                                      x|---------|x
                                      x|-1-1-1-1-|x
   
There is no guitar part in the verse but may want to play the background soft sounds.
  x|------------------------|x                                      x|---------|x
  x|------------------------|x                                      x|---------|x
  x|-5---4---7---5--4-4/5---|x  <---Let the notes ring              x|---------|x
  x|------------------------|x                                      x|-1-1-1-1-|x
  x|------------------------|x Play this between 2nd & 3rd time---->x|-1-1-1-1-|x
  x|------------------------|x                                      x|-1-1-1-1-|x

Pre-Chorus:
x|------------------|x
x|------------------|x
x|------------------|x
x|----------7-7--9*-|x  <--4 times
x|----------7-7-----|x
x|-1-1-1-1--7-7-----|x

Chorus:
x|------------------|x
x|------------------|x
x|------------------|x <---play four times
x|7-7-7---3-3-3---0-|x
x|7-7-7---3-3-3---0-|x
x|7-7-7-7-3-3-3-3-0-|x

Verse
Pre-Chorus
Chorus

Bridge
x|----------------|x
x|----------------|x
x|----------------|x
x|----------------|x  <--8 times
x|----------------|x
x|-1-1-1-1/7------|x

Intro
Pre-Chorus
Chorus(x3)

Song 8:
Title:In The End
Tunning:Dropped D one half step down
C# G# C# F# A# D#

Intro:(Piano part)
x|----------------------|x
x|----------------------|x
x|----------------------|x <---play 4 times
x|---9-9----------------|x
x|-7-----10-9-9-9-9h10--|x  In the 4th time play until the first 9(fifth note)
x|----------------------|x  
                
Verse:
x|--------19------------------|x
x|-20-19-----20-19---17-------|x
x|----------------------------|x
x|----------------------------|x  <--4 times
x|----------------------------|x
x|----------------------------|x

or

x|--------7*----------12*--------|x
x|----7*---------7*--------------|x
x|-5*---------5*-----------------|x
x|-------------------------------|x  <--4 times
x|-------------------------------|x
x|-------------------------------|x

Chorus:
x|-------------|x
x|-------------|x
x|-------7--5--|x
x|-2--5--7--5--|x  <--play two times
x|-2--5--5--3--|x
x|-2--5--------|x

Verse
Chorus

Bridge
x|----------------------|x
x|----------------------|x
x|----------------------|x <---play 4 times
x|---9-9----------------|x
x|-7-----10-9-9-9-9h10--|x  As in the intro, in the 4th time play until the first 9
x|----------------------|x

then.......x|-------------|x
           x|-------------|x
           x|-------7--5--|x
           x|-2--5--7--3--|x  <--play two times
           x|-2--5--5--3--|x
           x|-2--5--------|x   

Finish playing the chorus one more time.

Song 9:
Title:A Place For My Head
Tunning:Dropped D one half step down
C# G# C# F# A# D#

Intro and Verse:
x|-------------------------------|x
x|-------------------------------|x
x|------444-5-4-2----------------|x
x|-2--2-----------5--5-333-3-3-5-|x
x|-------------------------------|x
x|-------------------------------|x

Chorus:
x|--------------------------|x
x|--------------------------|x
x|--------------------------|x
x|-2--2--999-10-9-7-5-333-5-|x  <--Four times
x|-2--2--999-10-9-7-5-333-5-|x
x|-2--2--999-10-9-7-5-333-5-|x


Play the VERSE and the CHORUS

and then...

Bridge:
x|------------------|x
x|------------------|x
x|------------------|x
x|-22-2222-2222/10--|x  <---- Play this 8 times.
x|-22-2222-2222/10--|x
x|-22-2222-2222/10--|x

Song 10:
Title:Forgotten
Tunning:Dropped D one half step down
C# G# C# F# A# D#   

Intro: (x2 times)
x|--------------------------------------------------------------------|x
x|--------------------------------------------------------------------|x
x|--------------------------------------------------------------------|x
x|-3--2--2--2--2--3--2--2----*5--3--2--2--2--2--3--2--2---------------|x
x|-3--2--2--2--2--3--2--2--*5----3--2--2--2--2--3--2--2---------------|x
x|-3--2--2--2--2--3--2--2--------3--2--2--2--2--3--2--2---------------|x   

End with
x|---------------------|x
x|---------------------|x
x|---------------------|x
x|-3-2-2-2--2-3-2/5----|x 
x|-3-2-2-2--2-3-2/5----|x
x|-3-2-2-2--2-3-2/5----|x

Verse:
x|---------------------|x
x|------12-------------|x
x|--------14-----------|x
x|----------14------17-|x  <---Play 4 times
x|-0-12-------15-17----|x
x|---------------------|x

Then the INTRO again

and then.....
Chorus
x|------------------------------|x
x|------------------------------|x
x|--------9/10------------------|x
x|-7-7-7--9/10--10-10-9-9/10--7-|x
x|-7-7-7--7/8---10-10-9-9/10--7-|x
x|-7-7-7--------10-10-9-9/10--7-|x

Then the Verse, Intro and Chorus again
 
Bridge:
x|-----------|x
x|-----------|x
x|-----------|x  <----play it 2 times and then 
x|-3--2--3-5-|x                      x|-------------------|x   
x|-3--2--3-5-|x                      x|-------------------|x
x|-3--2--3-5-|x                      x|-------------------|x
                                     x|-7-5-7-3-3-2-2-3-5-|x <---3 times  
                                     x|-7-5-7-3-3-2-2-3-5-|x
                                     x|-7-5-7-3-3-2-2-3-5-|x

                 and end with 
                         x|-----|x
                         x|-----|x
                         x|-----|x
     Play it once----->  x|3-2/5|x
                         x|3-2/5|x
                         x|3-2/5|x

And play the Chorus again

Song 11:
Title:Cure For The Itch
Tunning:None

There is no Guitar in this song,.


Song 12:
Title:Pushing Me Away
Tunning:Dropped D one half step down
C# G# C# F# A# D#

Intro:
There are 2 ways to play the intro,
x|-*12-----------------*12---------------------------------|x
x|-------*12--------*7-----*12--------*12------------*7----|x
x|----*7---------*5----------------*7----------*12------*7-|x
x|------------------------------*7-----------------*7------|x
x|----------*7----------------------------*7---------------|x
x|---------------------------------------------------------|x
                      or
x|-12--10---------15-14-12----------10----------------14-10-|x
x|---------12----------------12-10-----12--------10---------|x
x|-------------9---------------------------9-12-------------|x
x|----------------------------------------------------------|x
x|----------------------------------------------------------|x
x|----------------------------------------------------------|x

Then:guitar 1
x|--------------------------------------------------------|x
x|--------------------------------------------------------|x
x|--------------------------------------------------------|x
x|-2-22-222-22/10-10-1010-10-1010/5-555-5-555/777/99-9-0--|x
x|-2-22-222-22/10-10-1010-10-1010/5-555-5-555/777/99-9-0--|x
x|-2-22-222-22/10-10-1010-10-1010/5-555-5-555/777/99-9-0--|x

guitar 2
x|--------------------------------------------------------|x
x|--------------------------------------------------------|x
x|--11-11-11-11-11-12-12-12-12-12-12/19-19\16-16-16-16-16-|x
x|--x--x--x--x--x--x--x--x--x--x--x--x--x--x--x--x--x--x--|x
x|--9--9--9--9--9--10-10-10-10-10-10/17-17\14-14-14-14-14-|x
x|--------------------------------------------------------|x

Verse:Play the intro 4 TIMES

Then.... 2 TIMES    

guitar 1
x|--------------------------------------------------------|x
x|--------------------------------------------------------|x
x|--------------------------------------------------------|x
x|-2-22-222-22/10-10-1010-10-1010/5-555-5-555/777/99-9-0--|x
x|-2-22-222-22/10-10-1010-10-1010/5-555-5-555/777/99-9-0--|x
x|-2-22-222-22/10-10-1010-10-1010/5-555-5-555/777/99-9-0--|x  

guitar 2
x|--------------------------------------------------------|x
x|--------------------------------------------------------|x
x|--11-11-11-11-11-12-12-12-12-12-12/19-19\16-16-16-16-16-|x
x|--x--x--x--x--x--x--x--x--x--x--x--x--x--x--x--x--x--x--|x
x|--9--9--9--9--9--10-10-10-10-10-10/17-17\14-14-14-14-14-|x
x|--------------------------------------------------------|x

VERSE: Play the intro again 4 times

Then.... 2 TIMES    
guitar 1
x|--------------------------------------------------------|x
x|--------------------------------------------------------|x
x|--------------------------------------------------------|x
x|-2-22-222-22/10-10-1010-10-1010/5-555-5-555/777/99-9-0--|x
x|-2-22-222-22/10-10-1010-10-1010/5-555-5-555/777/99-9-0--|x
x|-2-22-222-22/10-10-1010-10-1010/5-555-5-555/777/99-9-0--|x  

guitar 2
x|--------------------------------------------------------|x
x|--------------------------------------------------------|x
x|--11-11-11-11-11-12-12-12-12-12-12/19-19\16-16-16-16-16-|x
x|--x--x--x--x--x--x--x--x--x--x--x--x--x--x--x--x--x--x--|x
x|--9--9--9--9--9--10-10-10-10-10-10/17-17\14-14-14-14-14-|x
x|--------------------------------------------------------|x

then..... Chorus #2
x|----------------------------------------------------------------|x
x|----------------------------------------------------------------|x
x|----------------------------------------------------------------|x
x|-10-10-1010-10-1010/12-12-1212-12-1212/7-7-77-7-77\4-4-4/5-5-5/9|x
x|-10-10-1010-10-1010/12-12-1212-12-1212/7-7-77-7-77\4-4-4/5-5-5/9|x
x|-10-10-1010-10-1010/12-12-1212-12-1212/7-7-77-7-77\4-4-4/5-5-5/9|x

repeat Chorus 1 and Chorus 2 the necessary times

Linkin Park is the best band of the world
Suggest correction
comments
print report bad tab
23 comments total. Showing first comments.
0 reply
rhcp182 0 Apr 30, 2002 12:00 AM

good tab

0 reply
rhcp182 0 Apr 30, 2002 12:00 AM

this is the best hybrid theory tab in the web

-1 reply
jason_41089 0 Apr 30, 2002 12:00 AM

eXXXXXXellent good tab it is good but linkin park sucks cuz they have not released any video recently. very good tab

guest
You may want to rate the tab now too:
select rating
Wanna post a correction for this tab? Suggest correction