Oops, an error
Loading. Please wait.

Hybrid Theory Tab

version 2
version 2

Album

11,415 views 15 this week
18 commentsread comments
1 2 3 4 5
worth learning
x 17
add to favorites
launch autoscroll
font size
0
reset
how to read this tab
guitar tuner
Tab Pro tools
  • play this tab
  • loop segment
  • change instrument
  • show fretboard
  • metronome
×
Best way to learn
"Hybrid Theory"
Autoscroll
slow
fast
+/-
esc
set tempo
stop
LINKIN PARK
[HYBRID THEORY]
TABS BY DEVIN STOKER

ALL GUITAR PARTS FOR THE SONGS ON (HYBRID THEORY) ARE PLAYED TUNED DOWN 1/2 STEPS, THEN DROPPED-D
TUNING=Db-Ab-Db-Gb-Bb-Eb

THESE TABLATURES ARE THE AUTHOR'S OWN WORK, AND REPRESENT THE AUTHOR'S INTERPRETATIONS OF THE SONGS.  ALL SONGS WRITTEN BY LINKIN PARK EXCEPT "WITH YOU" BY LINKIN PARK/ DUST BROTHERS (M. SIMPSON/J. KING)  "FORGOTTEN" AND "A PLACE FOR MY HEAD" BY LINKIN PARK/ MARK WAKEFIRLD & DAVE FARRELL  "RUNAWAY" BY LINKIN PARK/ MARK WAKEFIELD.

LINKIN PARK IS:
CHESTER BENNINGTON: VOCALS
ROB BOURDON: DRUMS, BACKING VOCALS
BRAD DELSON: GUITARS, BACKING VOCALS
JOSEPH HAHN: RECORDS, SAMPLING, BACKING VOCALS
MIKE SHINODA: EMCEE, VOCALS, BEATS, SAMPLING
PHOENIX: BASS, BACKING VOCALS

*PAPERCUT*

INTRO  1-10-12-13-12------------(SAMPLER) (CLEAN)
       2---10-10-10-10----------
RIFF A 4-12(0)-15-14-10----------(DISTORTION) 
       5-12(0)-15-14-10----------
       6-12(0)-15-14-10----------
RIFF B 4-0-0--8-8-8-8-7-7-(1-1-3)----------(DISTORTION)
       5-0-0--8-8-8-8-7-7-(1-1-3)----------
	 6-0-0--8-8-8-8-7-7-(1-1-3)----------
RIFF C 4-1-1-3-0-0-0-(0)----------(DISTORTION)
	 5-1-1-3-0-0-0-(0)----------
	 6-1-1-3-0-0-0-(0)----------
RIFF D 4-8---10---5----------(DISTORTION)
	 5-8---10---5----------
	 6-8---10---5----------
RIFF E 4-8--10--8--10--8--10--12--1-1-3-0-0-0----------(DISTORTION)
	 5-8--10--8--10--8--10--12--1-1-3-0-0-0----------
	 6-8--10--8--10--8--10--12--1-1-3-0-0-0----------
ORDER  INTRO   4 TIMES
	 RIFF A  4 TIMES
	 RIFF B  8 TIMES	VERSE 1
	 RIFF A  4 TIMES	CHORUS
	 RIFF B  8 TIMES	VERSE 2
	 RIFF A  8 TIMES	CHORUS
	 RIFF C  4 TIMES	BRIDGE
	 RIFF D  4 TIMES
	 RIFF D  3 TIMES	CHORUS/OUTRO
	 RIFF E  1 TIMES

*ONE STEP CLOSER*

INTRO  5----------7-------------------------(DISTORTION)
	 6-0---5---7---8---7---0---3----------
RIFF A 3--------9----------5----------(DISTORTION)
	 4-0-0--------8-7---------------
	 5-0-0---7----8-7---3-----------
	 6-0-0--------8-7---------------
RIFF B 4-5---5-5-5---5---5-5-5---5---5-5-5-5----------(DISTORTION)
 	 5-5---5-5-5---5---5-5-5---5---5-5-5-5----------
 	 6-5---5-5-5---5---5-5-5---5---5-5-5-5----------
RIFF C 4-0-0-12-12-10-10-7-7-8-8-5-5-7-7-3-3-(3)-0-0-------(DISTORTION)
	 5-0-0-12-12-10-10-7-7-8-8-5-5-7-7-3-3-(3)-0-0-------
 	 6-0-0-12-12-10-10-7-7-8-8-5-5-7-7-3-3-(3)-0-0-------
RIFF D 4-1-0--0-3-1-0-6--0-3-1-0-THREE TIMES--1-1-1-1-1-1-0(DISTORTION)
	 5-1-0--0-3-1-0-6--0-3-1-0--------------1-1-1-1-1-1-0
 	 6-1-0--0-3-1-0-6--0-3-1-0--------------1-1-1-1-1-1-0
ORDER  INTRO  4 TIMES
	 RIFF A 4 TIMES
	 RIFF A 8 TIMES	VERSE 1
	 RIFF B 1 TIMES
 	 RIFF C 2 TIMES	CHORUS
	 RIFF A 8 TIMES	VERSE 2
	 RIFF B 1 TIMES
 	 RIFF C 4 TIMES	CHORUS
	 INTRO  4 TIMES	BRIDGE
	 RIFF D 2 TIMES 	
	 RIFF C 4 TIMES	CHORUS

*WITH YOU*

INTRO  4-3-3----3-3----3-3----3-3----------(QUIET DISTORTION)
	 5-3-3----3-3----3-3----3-3----------(PLAY WHILE DJ GOES CRAZY)
	 6-3-3----3-3----3-3----3-3----------
RIFF A 3----------------------12----------(DISTORTION)
	 4-10-10-11-11-10-10-10-------------
 	 5-10-10-11-11-10-10-10-------------
	 6-10-10-11-11-10-10-10-------------
RIFF B 4-15----10----13----8----------(DISTORTION)
	 5-15----10----13----8----------
	 6-15----10----13----8----------
RIFF C 1-16-15-----------------15-------------(CLEAN)
	 2-------16-13---13-9-11----16----------
ORDER  INTRO   1 TIMES
	 RIFF A  4 TIMES
	 RIFF B  1 TIMES
	 RIFF C  2 TIMES	VERSE 1
	 RIFF A  8 TIMES  CHORUS
	 RIFF B  1 TIMES
	 RIFF C  2 TIMES  VERSE 2
	 RIFF A  8 TIMES  CHORUS
	 RIFF B  2 TIMES
	 INTRO   2 TIMES  BRIDGE
	 RIFF B  4 TIMES  CHORUS
       INTRO  FADE OUT  OUTRO

*POINTS OF AUTHORITY*

INTRO  1-0---7---0---7------------(SAMPLER)-(PLAY THROUGHOUT)-(CLEAN)
	 2---8---8---8---8----------
RIFF A 4-2-2-3-3---0-2-3-3---0-2-2-3-3---2-0-3-2-----(QUIET DISTORTION)
	 5-2-2-3-3---0-2-3-3---0-2-2-3-3---2-0-3-2-----
	 6-2-2-3-3---0-2-3-3---0-2-2-3-3---2-0-3-2-----
RIFF B 4-2-2-3-3---0-2-3-3---0-2-2-3-3---2-0-3-2-----(LOUD DISTORTION)
	 5-2-2-3-3---0-2-3-3---0-2-2-3-3---2-0-3-2-----
	 6-2-2-3-3---0-2-3-3---0-2-2-3-3---2-0-3-2-----
RIFF C 4-2----3----2----3----------(DISTORTION)
	 5-2----3----2----3----------
	 6-2----3----2----3----------
ORDER  INTRO  8 TIMES	INTRO
	 RIFF A 2 TIMES	RAP
	 RIFF B 2 TIMES
	 RIFF A 1 TIMES	VERSE 1
	 RIFF B 3 TIMES
	 RIFF C 2 TIMES	CHORUS
	 RIFF B 1 TIMES
	 RIFF A 1 TIMES	VERSE 2
	 RIFF B 3 TIMES
	 RIFF C 2 TIMES	CHORUS
	 RIFF B 4 TIMES	RAP
	 RIFF C 4 TIMES	CHORUS
	 RIFF B 4 TIMES	OUTRO

*CRAWLING*

RIFF A 1----20-17---15-13-12-13-----------(SAMPLER)-(CLEAN)
	 2-15-------------------------------
RIFF B 4-12---8---3---10---7---12----------(DISTORTION)
	 5-12---8---3---10---7---12----------
	 6-12---8---3---10---7---12----------
ORDER  RIFF A  4 TIMES	INTRO
	 RIFF B  2 TIMES	CHORUS
	 RIFF A  2 TIMES
	 [EMPTY]		VERSE 1
	 RIFF B  2 TIMES	CHORUS
	 [EMPTY]  		VERSE 2
	 RIFF B  4 TIMES	CHORUS
	 RIFF B  2 TIMES  OUTRO [RIFF A  SIMULTANEOUS]

*RUNAWAY*


INTRO  6-10---13---6---8----------(DISTORTION)
RIFF A 4-10---13---8---8----------(DISTORTION)
	 5-10---13---6---8----------
	 6-10---13---6---8----------
RIFF B 4-10-10-11---10-10-10-11----------(DISTORTION)
	 5-10-10-11---10-10-10-11----------
	 6-10-10-11---10-10-10-11----------
ORDER  INTRO   2 TIMES
	 RIFF A  2 TIMES
	 [EMPTY]		VERSE 1
	 RIFF A  4 TIMES  CHORUS
	 [EMPTY]		VERSE 2
	 RIFF A  4 TIMES  CHORUS
	 [WHISPER]		BRIDGE
 RIFF B  2 TIMES
	 [WHISPER]
	 RIFF B  2 TIMES
 	 [WHISPER]
	 RIFF B  4 TIMES
	 RIFF A  8 TIMES	CHORUS/OUTRO


*BY MYSELF*

RIFF A 4-2-2-2-2--7-7----------(DISTORTION)
	 5-2-2-2-2--7-7----------
	 6-2-2-2-2--7-7----------
RIFF B 4-7-----3-XX---0-XX----------(DISTORTION)
	 5-7-----3-XX---0-XX----------
	 6-7-----3-XX---0-XX----------
RIFF C 4-2-2-2-2-7-7--2-2-2-2-5-5--0-0-2-2-3-3--0-0-0-0-2-2-(QUIET 
	 5-2-2-2-2-7-7--2-2-2-2-5-5--0-0-2-2-3-3--0-0-0-0-2-2-DISTORTION)
	 6-2-2-2-2-7-7--2-2-2-2-5-5--0-0-2-2-3-3--0-0-0-0-2-2-
ORDER  RIFF A  5 TIMES
	 SCILENCE/RIFF A	VERSE 1
	 RIFF A  5 TIMES	CHORUS
	 RIFF B  4 TIMES
	 SCILENCE/RIFF A	VERSE 2
	 RIFF A  5 TIMES	CHORUS
	 RIFF B  4 TIMES
	 RIFF C  2 TIMES  BRIDGE
	 RIFF A  8 TIMES	CHORUS
	 RIFF B  8 TIMES	/OUTRO

*IN THE END*

INTRO  3---4-4---------------------------(PIANO)-(CLEAN)
	 4-2-----5--4--4--4--4--5----------
RIFF A 1-12(14)---19---15---14---12----------(SAMPLER)-(CLEAN)
RIFF B 4---2---5---0---10---0---2---5---0---10----------(DISTORTION)
	 5---2---5---0---10---0---2---5---0---10----------
	 6---2---5---0---10---0---2---5---0---10----------
ORDER  INTRO   4 TIMES
	 RIFF A  4 TIMES 	VERSE 1 [SIMULTANEOUS INTRO]
	 RIFF B  1 TIMES  CHORUS
	 RIFF A  4 TIMES	VERSE 2 [SIMULTANEOUS INTRO]
	 RIFF B  1 TIMES	CHORUS
	 INTRO   4 TIMES  BRIDGE
	 RIFF B  1 TIMES
	 RIFF B  1 TIMES	CHORUS
	 INTRO   4 TIMES  OUTRO

*A PLACE FOR MY HEAD*

RIFF A 4-2-2-9-9-9-10-9-7-5-5-3-3-3-3-3-5----------(CLEAN)
RIFF B 4-2-9-9-10-9-7-5-5-3-3-3-5----------(DISTORTION)
RIFF C 4-2---9---10---9---7---5---3---5----------(DISTORTION)
	 5-2---9---10---9---7---5---3---5----------
	 6-2---9---10---9---7---5---3---5----------
RIFF D 4-2---0---2---0----------(DISTORTION)
	 5-2---0---2---0----------
	 6-2---0---2---0----------
RIFF E 4-2-2---2-2----------(QUIET DISTORTION)
	 5-2-2---2-2----------
	 6-2-2---2-2----------
RIFF F 4-2-2---2-2-2-2---2-2-2---2-2-2-2-5----------(DISTORTION)
	 5-2-2---2-2-2-2---2-2-2---2-2-2-2-5----------
	 6-2-2---2-2-2-2---2-2-2---2-2-2-2-5----------
ORDER  RIFF A   8 TIMES  INTRO
	 RIFF B   6 TIMES  VERSE 1
	 RIFF C   4 TIMES  CHORUS
	 RIFF A  .5 TIMES  VERSE 2
	 RIFF B 3.5 TIMES
	 RIFF D   1 TIMES  
	 RIFF C   2 TIMES	 CHORUS
	 RIFF E 3.5 TIMES  BRIDGE
	 RIFF C   8 TIMES  /CHORUS
	 RIFF F   8 TIMES	 /OUTRO

*FORGOTTEN*

RIFF A 1-------------------------------------------0----(DISTORTION)
	 2------------------------------------------------
	 3-----------------------------------------2------
	 4-3---2---2---2---2---2---2---3---2---2----------
	 5-3---2---2---2---2---2---2---3---2---2----------
	 6-3---2---2---2---2---2---2---3---2---2----------
RIFF B 1-0---7---5--------------------------(CLEAN)
	 2-------------5-----------8----------
	 3-----------------5---5--------------
RIFF C 3-----9----------------------------(DISTORTION)
	 4-7---9---10---9---10---9----------
	 5-7---7---10---9---10---9----------
	 6-7-------10---9---10---9----------
RIFF D 3-(10-10-10)2X----------------------(DJ GOES CRAZY)-(DISTORTION)
	 4-(10-10-10)2X---7---3---2----------
	 5-(8--8--8)-2X---7---3---2----------
	 6----------------7---3---2----------
ORDER  RIFF A  4 TIMES	INTRO
	 RIFF B  4 TIMES	VERSE 1
	 RIFF A  2 TIMES 
	 RIFF C  4 TIMES  CHORUS
	 RIFF B  5 TIMES  VERSE 2
	 RIFF A  4 TIMES  
	 RIFF C  4 TIMES  CHORUS
	 RIFF D  4 TIMES  BRIDGE
	 RIFF C  7 TIMES  CHORUS
	 RIFF B  1 TIMES  /OUTRO

*PUSHING ME AWAY*

RIFF A 1-12--10----0--15--14--12----------------0--------14-----(CLEAN)
	 2--------12---------------12--10--15--12-------------15--
	 3------------------------------------------12--14--------
RIFF B 4-4---5---12---9---9---9---(X-X-X)----------(DISTORTION)
	 5-4---5---12---9---0---9---(X-X-X)----------
	 6-4---5---12---9---X---9---(4-5-4)LAST BRIDGE
RIFF C 4-2---5---12---9---9---9------------(DISTORTION)
	 5-2---5---12---9---0---9------------
	 6-2---5---12---9---X---9------------
ORDER  RIFF A  1 TIMES  INTRO
	 RIFF B  1 TIMES
	 RIFF A  4 TIMES  VERSE 1
	 RIFF C  2 TIMES  CHORUS
	 RIFF A  4 TIMES  VERSE 2
	 RIFF C  2 TIMES  CHORUS
	 RIFF B  2 TIMES  BRIDGE
	 RIFF C  2 TIMES  CHORUS
	 RIFF B  1 TIMES  /OUTRO
	 RIFF C  1 TIMES
comments
print report bad tab
18 comments total. Showing first comments.
0 reply
BassDude1 wrote on December 24 2001, 12:00 am

Seriously, what is this crap? I can't read this at all!

0 reply
alexman32 wrote on January 13 2002, 12:00 am

If you do something like this and invest the time, make it readable

0 reply
ToolKid85 wrote on January 22 2002, 12:00 am

Hey dude, I think you did this very well! And for the people out there who think it looks like shit.....well it doesn't, I think it's the best tab ever written for the LP album....Luv, a girl from Holland

I want to post or [tab]
guest
You may want to rate the tab now too:
select rating
Please do not post tabs as comments. Select "correction" instead!