Oops, an error
Loading. Please wait.

In Between tab

version 2
version 2

Whole song

Interactive

3,256 views 1 this week
1 commentread comment
1 2 3 4 5
2 more votes to show rating
add to favorites
×
Save as Personal and add changes to this tab that will be seen only by you. Learn more ›
×
You can save this tab as Personal to edit and correct it or add notes. All changes will be seen only by you. Learn more »
launch autoscroll
font size
0
reset
how to read this tab
guitar tuner
edit
Autoscroll
slow
fast
+/-
esc
set tempo
stop
Difficulty
·=Intro=· (x2)
e|--------|
B|--------|
G|--------|
D|--------|
A|---4----|
E|-6---4--|

·=Verse 1 & 2=·
e|---------------------------------------------------------------------|
B|---------------------------------------------------------------------|
G|---------------------------------------------------------------------|
D|---------------------------------------------------------------------|
A|---4--------4------------------------4--------4----------------------|
E|-6---4----6---4-3-2-0-6-4-2-4-6----6---6----6---4-3-2-0-6-4-2-4-6-7--|

·=Chorus 01=·
e|-----------------------------------|
B|-----------------------------------|
G|-----------------------------------|
D|-----------------------------------|
A|-4-6------4-6------4-6-------------|
E|-----6-4------6-4------6-4--2-4-6--|

·=Verse 3=·
e|-----------------------------------|
B|-----------------------------------|
G|-----------------------------------|
D|-----------------------------------|
A|---4--------4----------------------|
E|-6---4----6---4-3-2-0-6-4-2-4-6-7--|

·=Chorus 02=·
e|------------------------------------------|
B|------------------------------------------|
G|------------------------------------------|
D|------------------------------------------|
A|-4-6------4-6------4-6--------------------|
E|-----6-4------6-4------6-4--2-4-6--2-4-6--|

·=Bridge=·
e|--------------------------|
B|--------------------------|
G|--------------------------|
D|--------------------------|
A|---6--------6--------6----|
E|-6---6----6---6----6---4--|

·=Chorus 03=·
e|--------------------------------------------------------------------|
B|--------------------------------------------------------------------|
G|--------------------------------------------------------------------|
D|--------------------------------------------------------------------|
A|-4-6------4-6------4-6----------1\4-6------4-6------4-6-------------|
E|-----6-4------6-4------6-4--2-4-------6-4------6-4------6-4--2-4-6--|

e|----------------|
B|----------------|
G|----------------|
D|----------------|
A|----------------|
E|--2-4-6--2-4-6--|

            
            
Suggest correction
Creating personal tab
Creating personal tab
You can edit any tab online and save it as your Personal.

You can edit, replace or remove any tab part or add personal notes – all changes will be seen only by you.

Personal tabs can be accessed anytime from any device, even offline.
Learn more »
Give kudos to tab author, rate the tab!
1 2 3 4 5
comments
print report bad tab
1 comment total.
0 reply
kevkev2257 89 Jan 07, 2012 10:32 AM

the chorus should really go like this·
e|-----------------------------------|
B|-----------------------------------|
G|-----------------------------------|
D|-----------------------------------|
A|-4-6------4-6------4-6-------------|
E|-----6-2------6-2------6-4--2-4-6--|

just missed this little part where the 4 fret should be the 2nd.
good tab though!

guest
Wanna post a correction for this tab? Suggest correction