Oops, an error
Loading. Please wait.

In Pieces bass

version 2
version 2

Whole song

Interactive

5,966 views 9 this week
6 commentsread comments
1 2 3 4 5
x 12
add to favorites
×
Save as Personal and add changes to this tab that will be seen only by you. Learn more ›
×
You can save this tab as Personal to edit and correct it or add notes. All changes will be seen only by you. Learn more »
launch autoscroll
font size
0
reset
guitar tuner
edit
Autoscroll
slow
fast
+/-
esc
set tempo
stop
In Pieces, drop D

Another great song off this album, it really picks up speed nicely.

Verse (comes in at “Your lips say that you love”)
|-------------------------------------------------|
|-3--3--3--3--------------------------------------|
|-------------4--4--4--4--1--1--1--1--3--3--3--3--|
|-------------------------------------------------| x9
Builds up...
|-----------------------------------------------------------------|
|-1-1-1-1-1-1-1-1-1-1-1-1-1-1-1-1-4-4-4-4-4-4-4-4-4-4-4-4-4-4-4-4-|
|-----------------------------------------------------------------|
|-----------------------------------------------------------------|

|-----------------------------------------------------------------|
|-----------------------------------------------------------------|
|-6-6-6-6-6-6-6-6-6-6-6-6-6-6-6-6-1-1-1-1-1-1-1-1-1-1-1-1-1-1-1-1-|
|-----------------------------------------------------------------|

Bridge (Solo)                     | hit each of these notes 16 times |
|---------------------------------|----------------------------------|--------|
|-3-------------------------------|----3-----------------------------|--------|
|----------4--------1--------3----|--------------4--------1--------3-|--------|
|---------------------------------|----------------------------------|--------|

Post solo (each note 16x)
|-------------------------------------|
|-3-----------------------------------|
|----------4--------------------------|
|-------------------6--------1--------|

            
            
Suggest correction
Creating personal tab
Creating personal tab
You can edit any tab online and save it as your Personal.

You can edit, replace or remove any tab part or add personal notes – all changes will be seen only by you.

Personal tabs can be accessed anytime from any device, even offline.
Learn more »
comments
print report bad tab
6 comments total. Showing first comments.
0 reply
Jose Montoya 103 Aug 06, 2007 12:11 PM

........I dont see whats wrong with this?....looks/Sounds good to me!!!!!!!!

0 reply
MarvelCrawler 10 Aug 07, 2007 09:14 AM

sounds good ;)

0 reply
JL Sevenfold 697 Aug 08, 2007 06:23 AM

definetly appreciate the feedback guys. you rule!!!

guest
You may want to rate the tab now too:
select rating
Wanna post a correction for this tab? Suggest correction