Oops, an error
Loading. Please wait.

In Pieces tab

version 2
version 2

Whole song

Interactive

Video

40,239 views 1 this week
7 commentsread comments
1 2 3 4 5
x 6
add to favorites
×
Save as Personal and add changes to this tab that will be seen only by you. Learn more ›
×
You can save this tab as Personal to edit and correct it or add notes. All changes will be seen only by you. Learn more »
launch autoscroll
font size
0
reset
how to read this tab
guitar tuner
edit
Autoscroll
slow
fast
+/-
esc
set tempo
stop
Author
This 100% right I played it with the recording

Verse and intro(bells):

    Fm                       C#                     A#m             Fm           
C      
e|---------------------------------------------------------------------------------|
B|--9---9------9-----9-11---9---9-----9------9-11--6--6---6----9-11-9--9------8----|
G|--10--10-----10-----------10--10----10-----------6--6---6---------10-10-----9----|
D|--10-----10-----10--------11-----11----11--------8----8---8-------10----10--10---|
A|---------------------------------------------------------------------------------|
E|---------------------------------------------------------------------------------|


Chorus(bells):

    A#m               C#                      G#                     D#     D#sus2
e|--------------------------------------------11--11----11-------------------------|
B|--6--6----6----9-11-9--9-----9-----9-11-----13--13----13-----9-11--11-11---------|
G|--6--6----6---------10-10----10-------------13-----13----13--------12-12--10-----|
D|--8----8----8-------11----11----11---------------------------------13-13---------|
A|---------------------------------------------------------------------------------|
E|---------------------------------------------------------------------------------|

Chorus(Strings): 

e|----------------------------------------------------|
B|----------------------------------------------------|
G|--------------13---9--------------------------------|
D|---8-----11---13---9--------------------------------|
A|---8-----11---11---7--------------------------------|
E|---6-----9------------------------------------------|

Verse(guitar):

e|-----------------------------------------------------|
B|---9--9--9--11--9--9--9---11--9--9--9--9-------------|
G|---10-10-10-----10-10-10------10-10-10-10--9-9-------|
D|-----------------------------------------------------|
A|-----------------------------------------------------|
E|-----------------------------------------------------|

Chrous(guitar):

e|---8-9-8-8--8--9--8-8-8-8----------------------------|
B|---9---9-9--9-----9-9-9-9--11-11-11-11---------------|
G|---------------------------12-12-12-12---------------|
D|-----------------------------------------------------|
A|-----------------------------------------------------|
E|-----------------------------------------------------|

Solo:

  play x4                                  
e|---------------------------|     |---------------------|
B|---------------------------|     |---------------------|
G|---12h13p12h13p12p10-------|     |--12-10--5-----------|
D|---------------------------|     |---------------------|
A|---------------------------|     |---------------------|
E|---------------------------|     |---------------------|


e|--------------------|
B|---13(x8)--12(x8)---|
G|--------------------|
D|--------------------|
A|--------------------|
E|--------------------|


repeat x2
e|---------------------------------------------------------------------------|
B|---------------------------------------------------11-13h14p13p11h13-------|
G|--12h13p12h13p12p10---10h12p10h12p10-----10-12-13--------------------------|
D|-------------------------------------10------------------------------------|
A|---------------------------------------------------------------------------|
E|---------------------------------------------------------------------------|


repeat x2
e|----------------------------------------|
B|------------11-13h14p13p11h13h14--------|
G|-10-12-13-------------------------------|
D|----------------------------------------|
A|----------------------------------------|
E|----------------------------------------|


play x3
e|---------------------||-------------------|
B|--13h14p13h14p13p11--||-11(x8)------------|
G|---------------------||-------------------|
D|---------------------||-------------------|
A|---------------------||-------------------|
E|---------------------||-------------------|


Chords during solo:
e|---------------------------------------------------------------|
B|---------------------------------------------------------------|
G|--5---1---------------10-------6--------3-------5--------------|
D|--6---3---3-----10----10-------6--------3-------5--------------|
A|--8---4---4-----10----8(x16)---4(x16)---1(x16)--3(x16)---------|
E|----------6-----8----------------------------------------------|



Ending:
e|-----------------------------------------------------|
B|-----------------------------------------------------|
G|--3--------6-----------------------------------------|
D|--3--------6--------5-------8------------------------|
A|--1(x16)---4(x16)---5-------6------------------------|
E|--------------------3(x16)--6(x16)-------------------|








            
            
Suggest correction
Creating personal tab
Creating personal tab
You can edit any tab online and save it as your Personal.

You can edit, replace or remove any tab part or add personal notes – all changes will be seen only by you.

Personal tabs can be accessed anytime from any device, even offline.
Learn more »
comments
print report bad tab
7 comments total. Showing first comments.
0 reply
Covin 30 May 16, 2007 10:23 PM

solo sounds a lot more complicated than that... O.o

0 reply
guitar padawan 166 May 18, 2007 05:20 PM

solo is way off

0 reply
guitar padawan 166 May 19, 2007 07:56 AM

I Tabbed the solo so check it out when they add it to the site....its perfect

guest
You may want to rate the tab now too:
select rating
Wanna post a correction for this tab? Suggest correction