Oops, an error
Loading. Please wait.

In Pieces tab

version 3
version 3

Whole song

Interactive

Video

52,084 views 81 this week
27 commentsread comments
1 2 3 4 5
x 46
add to favorites
×
Save as Personal and add changes to this tab that will be seen only by you. Learn more ›
×
You can save this tab as Personal to edit and correct it or add notes. All changes will be seen only by you. Learn more »
launch autoscroll
font size
0
reset
how to read this tab
guitar tuner
edit
Autoscroll
slow
fast
+/-
esc
set tempo
stop
Linkin Park
Song- "In Pieces"
Album- Minutes to Midnight

NO GUITAR until 2nd Verse

Interlude to Verse 2

Gtr 1
e|6-4-4-6--4-4-4-6--4-4-4-4--4-4-3-3----------------------------------------|
b|6-6-6-6--6-6-6-6--6-6-6-6--6-6-5-5----------------------------------------|
g|--------------------------------------------------------------------------|
d|--------------------------------------------------------------------------|
a|--------------------------------------------------------------------------|
D|--------------------------------------------------------------------------|

Verse 2

Gtr 1
e|6-4-4-6--4-4-4-6--4-4-4-4--4-4-3-3----|
b|6-6-6-6--6-6-6-6--6-6-6-6--6-6-5-5----|
g|--------------------------------------|X2
d|--------------------------------------|
a|--------------------------------------|
D|--------------------------------------|

Pre Chorous

Gtr 1
e|4-6-4-4--4-6-4-4--4-6-4-4--6-4-3-3--|
b|6-6-6-6--6-6-6-6--6-6-6-6--6-6-5-5--|
g|------------------------------------|
d|------------------------------------|
a|------------------------------------|
D|------------------------------------|

1st Chorous

Gtr 1
e|8-9-11-11--8-9-11-11--8-8-8-8--6-6-6-6--|
b|9-9-9--9---9-9-9--9---9-9-9-9--8-8-8-8--|
g|----------------------------------------|X2
d|----------------------------------------|
a|----------------------------------------|
D|----------------------------------------|


Solo

Gtr 2
1st part
e-------------------------------------------------------------------------|
b-------------------------------------------------------------------------|
g-12h13p12p10-12h13p12p10-12h13p12p10-12h13p12p10-12h13p12p10-12h13p12p10-|
d-------------------------------------------------------------------------|
a-------------------------------------------------------------------------|
D-------------------------------------------------------------------------|

e-----------|   |------------------------------------------------|
b-----------|   |------------------------------------------------|
g-12--------|X3 |-13-13-13-13-13-13-13-13-12-12-12-12-12-12-12-12|
d----13-10--|   |------------------------------------------------|
a-----------|   |------------------------------------------------|
D-----------|   |------------------------------------------------|

2nd part
e--------------------------------------------------------------------------|
b------------------------------------------------------11-13-13h14p13p11-13|
g-12h13p12p10-12h13p12p10-12h13p12p10-12h13p12p10-12-13--------------------|
d--------------------------------------------------------------------------|
a--------------------------------------------------------------------------|
D--------------------------------------------------------------------------|
                                 X2

e------------------------------------------------------------------------|
b-------9-11-11h13p11p9-11-13--------11-13-13h14p13p11-13-14-13h14p13p11-|
g-10-12------------------------12-13-------------------------------------|
d------------------------------------------------------------------------|
a------------------------------------------------------------------------|
D------------------------------------------------------------------------|

e------------------------------------------------------------------------|
b-13h14p13p11-13h14p13p11—13h14p13p11—13-13-13-13-13-13-13-13\-----------|
g------------------------------------------------------------------------|
d------------------------------------------------------------------------|
a------------------------------------------------------------------------|
D------------------------------------------------------------------------|

Gtr 1 comes in with this in the second part of the solo

e|-------------------------------------|
b|-------------------------------------|
g|-10------6-------3-------5-----------|
d|-x- X16 -x- X16 -x- X16 -x- X16 -----|
a|-8-------4-------1-------3-----------|
D|-------------------------------------|

2nd Chorous

Gtr 1

e|--------------------------------------------------------------------|
b|--------------------------------------------------------------------|
g|3333333333333333-6666666666666666-----------------------------------|X2
d|3333333333333333-6666666666666666-666666666666666-1111111111111111--|
a|1111111111111111-4444444444444444-666666666666666-1111111111111111--|
D|----------------------------------666666666666666-1111111111111111--|


Gtr 2 (tremolo picking)

e|------------------------------|-----------------------------|
b|-18- X64 --13- X32 --11- X32 -|-18- X64--13- X32 --16- X32 -|
g|------------------------------|-----------------------------|
d|------------------------------|-----------------------------|
a|------------------------------|-----------------------------|
D|------------------------------|-----------------------------|


Gtr 2 then ends the song on the 1st chorous

Gtr 1
e|8-9-11-11--8-9-11-11--8-8-8-8--6-6-6-6--|
b|9-9-9--9---9-9-9--9---9-9-9-9--8-8-8-8--|
g|----------------------------------------|X2
d|----------------------------------------|
a|----------------------------------------|
D|----------------------------------------|

Solo is 100% correct
please rate and comment! thanks
Suggest correction
Creating personal tab
Creating personal tab
You can edit any tab online and save it as your Personal.

You can edit, replace or remove any tab part or add personal notes – all changes will be seen only by you.

Personal tabs can be accessed anytime from any device, even offline.
Learn more »
comments
print report bad tab
27 comments total. Showing first comments.
+3 reply
drumbum4life 197 Jun 28, 2007 09:13 AM

i think ur solos the best s far. good job.

+3 reply
rastamon360 10 Jun 28, 2007 10:36 AM

the solo is perfect and the rest sunds good on the 2 high strings

+3 reply
solo guru 10 Jun 28, 2007 10:42 AM

awesome solo rock on man

guest
You may want to rate the tab now too:
select rating
Wanna post a correction for this tab? Suggest correction