Oops, an error
Loading. Please wait.
We have an official In The End tab made by UG professional guitarists. Check out the tab »
×

In The End Acoustic tab

version 3
version 3

Whole song

74,555 views 468 this week
5 commentsread comments
1 2 3 4 5
x 20
add to favorites
×
Save as Personal and add changes to this tab that will be seen only by you. Learn more ›
×
You can save this tab as Personal to edit and correct it or add notes. All changes will be seen only by you. Learn more »
launch autoscroll
font size
0
reset
how to read this tab
guitar tuner
backing track
0:00
0:00
edit
Autoscroll
slow
fast
+/-
esc
set tempo
stop
Author
Artist: Linkin Park  
Song: In The End (acoustic)
Standard tuning

[Intro]
e|-----------------------|
B|----0-0----------------|
G|--------0----------0---|
D|--2-------4-4-4-4------|
A|-----------------------|
E|-----------------------|

[Verse]
   Am   C   Em
e|------------------|
B|------1-1---------|
G|-2-2-2--x-x-------|
D|-2-2-2--2-2--2----|
A|------3-3--2------|
E|------------------|

[Chorus]
e|---------------------------------------|
B|---------------------------------------|
G|---5-5-5-5----7-7-7-7-7-----3-3-3-3-3--|
D|---5-5-5-5----7-7-7-7-7-----3-3-3-3-3--|
A|---3-3-3-3----5-5-5-5-5-----1-1-1-1-1--|
E|---------------------------------------|
"i tried so hard and got so far..."

e|----------------------------------------------|
B|----------------------------------------------|
G|------3-3-3-3-3--------7-7-7-7-7----5-5-5-5-5-|
D|------3-3-3-3-3--------7-7-7-7-7----5-5-5-5-5-|
A|------1-1--1-1-1-------5-5-5-5-5----3-3-3-3-3-|
E|----------------------------------------------|
"but in the end, it doesn't even matter"

[Bridge]
e|-------------------|
B|-------------------|
G|------5-5----------|
D|-2-2-2--5-5--5-5-5-|
A|-2-2-2--3-3--5-5-5-|
E|-2-2-2-------5-5-5-|
"I've put my trust in you..."

[Outro]
e|-------------------|
B|-------------------|
G|-------9-11-12-11--|
D|-----9-------------|
A|-7-10--------------|
E|-------------------|


************************************

| x  Dead note

************************************

            
            
Suggest correction
Creating personal tab
Creating personal tab
You can edit any tab online and save it as your Personal.

You can edit, replace or remove any tab part or add personal notes – all changes will be seen only by you.

Personal tabs can be accessed anytime from any device, even offline.
Learn more »
comments
print report bad tab
5 comments total. Showing first comments.
+3 reply
Luis Rodriguez 10 Mar 31, 2006 12:53 PM

is not that fast dude!!!

+3 reply
rossgwalker 10 Mar 19, 2007 02:07 AM

It doesnt that good tut tut tut tut tut

0 reply
RayneFromNR 42 Aug 17, 2013 04:40 AM

I'm not sure but I think there should be another note in this, a half beat between the last two notes you have, so it's like this:
=intro=
e------------------------|
B----0-0-----------------|
G--------0-----------0---|
D--2-------4-4-4-4-4-----|
A------------------------|
E------------------------|

guest
You may want to rate the tab now too:
select rating
Wanna post a correction for this tab? Suggest correction