Oops, an error
Loading. Please wait.

Invisible tab

331 views 18 this week
no commentswrite comment
1 2 3 4 5
3 more votes to show rating
add to favorites
×
Save as Personal and add changes to this tab that will be seen only by you. Learn more ›
×
You can save this tab as Personal to edit and correct it or add notes. All changes will be seen only by you. Learn more »
launch autoscroll
font size
0
reset
how to read this tab
guitar tuner
edit
Autoscroll
slow
fast
+/-
esc
set tempo
stop
About this tab version
Guitar 1 and Guitar 2 of the song. Guitar 3 also. All on Drop D tuning. Was this info helpful? Yes No
(No guitar in intro)

[Verse 1]
(Guitar 1)
E|-------------------------------------------------------------------------------------------------|
B|-------------------------------------------------------------------------------------------------|
G|-------------------------------------------------------------------------------------------------|
D|-9-----9-----9-----9-----9-----9-----9-----9-----9-----9-----9-----9-----9-----9-----9-----9-----|
A|-------------------------------------------------------------------------------------------------|
D|-------------------------------------------------------------------------------------------------|

E|-------------------------------------------------------------------------------------------------|
B|-------------------------------------------------------------------------------------------------|
G|-------------------------------------------------------------------------------------------------|
D|-9-----9-----9-----9-----9-----9-----9-----8-----8-----9-----9-----9-----9-----9-----9-----9-----|
A|-------------------------------------------------------------------------------------------------|
D|-------------------------------------------------------------------------------------------------|

E|-------------------------------------------------------------------------------------------------|
B|-------------------------------------------------------------------------------------------------|
G|-------------------------------------------------------------------------------------------------|
D|-9-----9-----9-----9-----9-----9-----9-----9-----9-----9-----9-----9-----9-----9-----9-----8-----|
A|-------------------------------------------------------------------------------------------------|
D|-------------------------------------------------------------------------------------------------|

E|-------------------------------------------------------------------------------------------------|
B|-------------------------------------------------------------------------------------------------|
G|-------------------------------------------------------------------------------------------------|
D|-8-----9-----9-----9-----9-----9-----9-----8-----8-----9-----9-----9-----9-----9-----9-----9-----|
A|-------------------------------------------------------------------------------------------------|
D|-------------------------------------------------------------------------------------------------|

(No guitar in chorus/hook)

[Verse 2]
(Guitar 1)
E|-------------------------------------------------------------------------------------------------|
B|-------------------------------------------------------------------------------------------------|
G|-------------------------------------------------------------------------------------------------|
D|-9-----9-----9-----9-----9-----9-----9-----9-----9-----9-----9-----9-----9-----9-----9-----9-----|
A|-------------------------------------------------------------------------------------------------|
D|-------------------------------------------------------------------------------------------------|

E|-------------------------------------------------------------------------------------------------|
B|-------------------------------------------------------------------------------------------------|
G|-------------------------------------------------------------------------------------------------|
D|-9-----9-----9-----9-----9-----9-----9-----8-----8-----9-----9-----9-----9-----9-----9-----9-----|
A|-------------------------------------------------------------------------------------------------|
D|-------------------------------------------------------------------------------------------------|

E|-------------------------------------------------------------------------------------------------|
B|-------------------------------------------------------------------------------------------------|
G|-------------------------------------------------------------------------------------------------|
D|-9-----9-----9-----9-----9-----9-----9-----9-----9-----9-----9-----9-----9-----9-----9-----8-----|
A|-------------------------------------------------------------------------------------------------|
D|-------------------------------------------------------------------------------------------------|

E|-------------------------------------------------------------------------------------------------|
B|-------------------------------------------------------------------------------------------------|
G|-------------------------------------------------------------------------------------------------|
D|-8-----9-----9-----9-----9-----9-----9-----8----(x)----9-----9-----9-----9-----9-----9-----9-----|
A|-------------------------------------------------------------------------------------------------|
D|-------------------------------------------------------------------------------------------------|

[Chorus]
(Guitar 2)
E|-------------------------------------------------------------------------------------------------|
B|-------------------------------------------------------------------------------------------------|
G|-8~----------------------------------------------9~----------------------------------------------|
D|-------------------------------------------------------------------------------------------------|
A|-------------------------------------------------------------------------------------------------|
D|-------------------------------------------------------------------------------------------------|

E|-------------------------------------------------------------------------------------------------|
B|-------------------------------------------------------------------------9~----------7~----------|
G|-8~----------------------------------------------9~----------------------------------------------|
D|-------------------------------------------------------------------------------------------------|
A|-------------------------------------------------------------------------------------------------|
D|-------------------------------------------------------------------------------------------------|

E|-------------------------------------------------------------------------------------------------|
B|-------------------------------------------------------------------------------------------------|
G|-8~----------------------------------------------9~----------------------------------------------|
D|-------------------------------------------------------------------------------------------------|
A|-------------------------------------------------------------------------------------------------|
D|-------------------------------------------------------------------------------------------------|

E|-------------------------------------------------------------------------------------------------|
B|-------------------------------------------------------------------------------------------------|
G|-8~----------------------------------------------9~---------------------------------(x)----------|
D|-------------------------------------------------------------------------------------------------|
A|-------------------------------------------------------------------------------------------------|
D|-------------------------------------------------------------------------------------------------|

(Guitar 1)
E|-------------------------------------------------------------------------------------------------|
B|-------------------------------------------------------------------------------------------------|
G|-8-----------------8-----------------8-----------9-----------------9-----------------9-----------|
D|----------9-----------------9-----------------------------9-----------------9--------------------|
A|-------------------------------------------------------------------------------------------------|
D|-------------------------------------------------------------------------------------------------| (x3)

E|-------------------------------------------------------------------------------------------------|
B|-------------------------------------------------------------------------------------------------|
G|-8-----------------8-----------------8-----------9-----------------9----------------(x)----------|
D|----------9-----------------9-----------------------------9-----------------9-------(x)----------|
A|-------------------------------------------------------------------------------------------------|
D|-------------------------------------------------------------------------------------------------|

[Hook]
(Guitar 1)
E|-------------------------------------------------------------------------------------------------|
B|-------------------------------------------------------------------------------------------------|
G|-------------------------------------------------------------------------------------------------|
D|-9-----9-----9-----9-----9-----9-----9-----9-----9-----9-----9-----9-----9-----9-----9-----9-----|
A|-------------------------------------------------------------------------------------------------|
D|-------------------------------------------------------------------------------------------------| (x2)

(Guitar 2)
E|-------------------------------------------------------------------------------------------------|
B|-------------------------------------------------------------------------9~----------7~----------|
G|-8~----------------------9~----------------------8~----------------------------------------------|
D|-------------------------------------------------------------------------------------------------|
A|-------------------------------------------------------------------------------------------------|
D|-------------------------------------------------------------------------------------------------| (x2)

(Guitar 3)
E|-------------------------------------------------------------------------------------------------|
B|-------------------------------------------------------------------------------------------------|
G|-8-----------------------9-----------------9-----8-----------------------9-----------------9-----|
D|-------------9--------------------9--------------------------9--------------------9--------------|
A|-------------------------------------------------------------------------------------------------|
D|-------------------------------------------------------------------------------------------------| (x2)

(No guitar in bridge)

[Bridge Ending] 
(Guitar 1)
E|-------------------------------------------------------------------------------------------------|
B|-------------------------------------------------------------------------------------------------|
G|-------------------------------------------------------------------------------------------------|
D|----------------------------------------------------------------------------------------------9--|
A|-------------------------------------------------------------------------------------------9-----|
D|-------------------------------------------------------------------------------------------------|

[Final Chorus]
(Guitar 1)
E|-------------------------------------------------------------------------------------------------|
B|-------------------------------------------------------------------------------------------------|
G|-8~----------------------------------------------9~----------------------------------------------|
D|-------------------------------------------------------------------------------------------------|
A|-------------------------------------------------------------------------------------------------|
D|-------------------------------------------------------------------------------------------------|

E|-------------------------------------------------------------------------------------------------|
B|-------------------------------------------------------------------------9~----------7~----------|
G|-8~----------------------------------------------9~----------------------------------------------|
D|-------------------------------------------------------------------------------------------------|
A|-------------------------------------------------------------------------------------------------|
D|-------------------------------------------------------------------------------------------------|

E|-------------------------------------------------------------------------------------------------|
B|-------------------------------------------------------------------------------------------------|
G|-8~----------------------------------------------9~----------------------------------------------|
D|-------------------------------------------------------------------------------------------------|
A|-------------------------------------------------------------------------------------------------|
D|-------------------------------------------------------------------------------------------------| (x2)

(Guitar 2)
E|-------------------------------------------------------------------------------------------------|
B|-------------------------------------------------------------------------------------------------|
G|-8--------8--------9--------9--------9-----------8--------8--------9--------9--------9-----------|
D|-------9--------9--------9--------9--------9-----------9--------9--------9--------9-----------9--|
A|-------------------------------------------------------------------------------------------9-----|
D|-------------------------------------------------------------------------------------------------| (x4)

[Outro Hook]
(Guitar 1)
E|-------------------------------------------------------------------------------------------------|
B|-------------------------------------------------------------------------9~----------7~----------|
G|-8~----------------------9~----------------------8~----------------------------------------------|
D|-------------------------------------------------------------------------------------------------|
A|-------------------------------------------------------------------------------------------------|
D|-------------------------------------------------------------------------------------------------| (x4)

(Guitar 2)
E|-------------------------------------------------------------------------------------------------|
B|-------------------------------------------------------------------------------------------------|
G|-8--------8--------9--------9--------9-----------8--------8--------9--------9--------9-----------|
D|-------9--------9--------9--------9--------9-----------9--------9--------9--------9-----------9--|
A|-------------------------------------------------------------------------------------------9-----|
D|-------------------------------------------------------------------------------------------------| (x4)

[Ending]
(Guitar 1)
E|-------------------------------------------------------------------------------------------------|
B|-------------------------------------------------------------------------------------------------|
G|-8~----------------------(fade out slowly)-------------------------------------------------------|
D|-------------------------------------------------------------------------------------------------|
A|-------------------------------------------------------------------------------------------------|
D|-------------------------------------------------------------------------------------------------|


************************************

| ~  Vibrato
| x - dead note

************************************

            
            
Suggest correction
Creating personal tab
Creating personal tab
You can edit any tab online and save it as your Personal.

You can edit, replace or remove any tab part or add personal notes – all changes will be seen only by you.

Personal tabs can be accessed anytime from any device, even offline.
Learn more »
Give kudos to tab author, rate the tab!
1 2 3 4 5
comments
print report bad tab
guest
You may want to rate the tab now too:
select rating
Wanna post a correction for this tab? Suggest correction