Oops, an error
Loading. Please wait.

Iridescent Bass Tab

version 2
version 2

Whole song

Interactive

4,761 views 3 this week
4 commentsread comments
1 2 3 4 5
accurate
x 6
add to favorites
launch autoscroll
font size
0
reset
guitar tuner
Tab Pro tools
  • play this tab
  • loop segment
  • change instrument
  • show fretboard
  • metronome
×
Best way to learn
"Iridescent"
Autoscroll
slow
fast
+/-
esc
set tempo
stop
Contributor
Difficulty
novice
Someone asked me where I got my tabs for this song on my bass cover, but since I figure 
everything out by ear I decided to post tabs up here.
I play this song a little differently in my video since the original bass line is 
somewhat boring.

Check out my bass cover of Iridescent!

http://www.youtube.com/watch?v=JerER72Ijik

Also check out my channel for more bass covers!

http://www.youtube.com/user/chrisistheazn


No bass in Verse 1 & Chorus 1

After-Chorus (1:23)

G|---------------------------------|
D|---------------------------------|
A|---------------------------------|
E|-5-------1-------5-------1-------|

Verse 2

G|-----------------------------------------------------------------------|
D|-----------------------------------------------------------------------|
A|-3---------------3-----------------------------------------------------|
E|---------1---------------1-------5---7-8-1-------5---7-8-3-------------|

Chorus 2

G|-----------------------------------------------------------------------|
D|-----------------------------------------------------------------------|
A|-333333333333--------------------333333333333--------------------------|
E|-------------11115555555555553333------------11115555555555553333------|

G|-----------------------------------------------------------------------|
D|-----------------------------------------------------------------------|
A|-333333333333----------------------------------------------------3-----|
E|-------------1111555555553333333311111111111111113333333333333333------|

Bridge

Bass doesn't come in until 3:30

G|-----------------------------------------------------------------------|
D|-----------------------------------------------------------------------|
A|-3333333333333333----------------3333333333333333----------------------|
E|-----------------5555555533333333----------------5555555533333333------|

G|-----------------------------------------------------------------------|
D|-----------------------------------3-------3---------------------------|
A|-3333333333333333------------------------------------------------------|
E|-----------------55555555333333331---11111---1111333333333-------------|

Chorus 3

G|-----------------------------------------------------------------------|
D|-----------------------------------------------------------------------|
A|-3333333333333333----------------3333333333333333----------------------|
E|-----------------5555555555553333----------------5555555555553333------|

G|-----------------------------------------------------------------------|
D|-----------------------------------3-------3---------------------------|
A|-3333333333333333------------------------------------------------------|
E|-----------------55555555333333331---11111---1111333333333333333335----|
comments
print report bad tab
4 comments total. Showing first comments.
-1 reply
BassDogg93 wrote on August 31 2011, 07:27 am

Not as good as mine at all

-1 reply
MAKOWIECKIFAN10 wrote on September 3 2011, 03:39 pm

Im a new member and i have just realised this tab is wrong.Better luck next time.Macko rules!!!

0 reply
b.man0110 wrote on March 30 2015, 12:19 pm, edited at 12:21 pm

MACKOWIECKIFAN10, of course you think it's wrong, he said it himself that he put what he thought it was by ear. Bassdogg93, you are free to think whatever you want, but without outside witness, yours could be the exact same as his for all we know.

I want to post or [tab]
guest
You may want to rate the tab now too:
select rating
Please do not post tabs as comments. Select "correction" instead!