Oops, an error
Loading. Please wait.

Jigga What Faint Bass Tab

version 1
version 1

Whole song

Interactive

2,376 views 1 this week
no commentswrite comment
1 2 3 4 5
1 last vote to show rating
add to favorites
launch autoscroll
font size
0
reset
guitar tuner
Autoscroll
slow
fast
+/-
esc
set tempo
stop
Help us to improve Ultimate-Guitar.com Take our survey!
×
Author
JIGGA WHAT/FAINT (3:31)
LINKIN PARK & JAY-Z
COLLISION COURSE (2004)
BASS

>0:00 (x4)
G---------6-66-----------6-4----------6-66---------------------|
D---------------------------------------------------6-6/5-5/4--|
A--4-4----------4-4-----------4-4-----------4-4----------------|
E--------------------------------------------------------------|

>0:57
G---------6-66------|
D-------------------|
A--4-4----------4-4-|
E-------------------|

>1:12 (x2)
G------------------------------------------------------------------|
D------------------------------------------------------------------|
A--4-4-4-4-4-4-4-4-------------------------------------------------|
E------------------0-0-0-0-0-0-0-0-5-5-5-5-5-5-5-5-2-2-2-4-4-4-4-4-|

>1:33		>1:40		>1:48		>1:55		>2:02
G------		G------		G------		G------		G------|
D------		D------		D------		D------		D------|
A--44--		A--44--		A--44--		A--44--		A--44--|
E------		E------		E------		E------		E------|

>2:09		>2:12		>2:14
G------		G------		G------|
D------		D------		D------|
A--44--		A------		A------|
E------		E--55--		E--77--|

>2:18
G------------------------------------------------------------------|
D------------------------------------------------------------------|
A--4-4-4-4-4-4-4-4-------------------------------------------------|
E------------------0-0-0-0-0-0-0-0-5-5-5-5-5-5-5-5-2-2-2-4-4-4-4-4-|

G--------------------------------------------------------------------------------|
D--------------------------------------------------------------------------------|
A--4-4-4-4-4-4-4-4---------------------------------------------------------------|
E------------------0-0-0-0-0-0-0-0-5-5-5-5-5-5-5-5-2-2-2-4-4-4-4-4-4-4-4-4-4-4-4-|

>2:34 (x2)
G-----------------------------------------------------------|
D-----6--------------6-------------6--------------6---------|
A---4---7-6-7-6--4-4---7-6-7-6---4---7-6-7-6--4-4---7-6-7-6-|
E-----------------------------------------------------------|

>2:57 (x3)
G------------------------------------------------------------------|
D------------------------------------------------------------------|
A--4-4-4-4-4-4-4-4-------------------------------------------------|
E------------------0-0-0-0-0-0-0-0-5-5-5-5-5-5-5-5-2-2-2-4-4-4-4-4-|

G--------------------------------------------------------------------------------|
D--------------------------------------------------------------------------------|
A--4-4-4-4-4-4-4-4---------------------------------------------------------------|
E------------------0-0-0-0-0-0-0-0-5-5-5-5-5-5-5-5-2-2-2-4-4-4-4-4-4-4-4-4-4-4-4-|
Suggest correction
Give kudos to tab author, rate the tab!
1 2 3 4 5
comments
print report bad tab
guest
You may want to rate the tab now too:
select rating
Wanna post a correction for this tab? Suggest correction