Oops, an error
Loading. Please wait.

Keys To The Kingdom tab

version 2
version 2

Whole song

Interactive

1,295 views 1 this week
no commentswrite comment
1 2 3 4 5
x 4
add to favorites
×
Save as Personal and add changes to this tab that will be seen only by you. Learn more ›
×
You can save this tab as Personal to edit and correct it or add notes. All changes will be seen only by you. Learn more »
launch autoscroll
font size
0
reset
how to read this tab
guitar tuner
edit
Autoscroll
slow
fast
+/-
esc
set tempo
stop
-------------------------------------------------------------------------------
                             Keys to the Kingdom - Linkin Park
-------------------------------------------------------------------------------
Tabbed by: AathithyaVidhyarthLP
E-mail: avbonson2000@gmail.com
Tuning: DADGBE

e|-----------------|-----------------|-----------------|-----------------|
B|-----------------|-----------------|-----------------|-----------------|
G|-4---4-4-4-4-7----|7---7-6---------|-4---4-4-4-4-7---|-7---7-----------|
D|-2---2-2-2-2-5---|-5---5-4-0-------|-2---2-2-2-2-5---|-5---5-0---------|
A|-2---2-2-2-2-5---|-5---5-4-0-------|-2---2-2-2-2-5---|-5---5-0---------|
D|-2---2-2-2-2-5---|-5---5-4-0-------|-2---2-2-2-2-5---|-5---5-0---------|

e|-----------------|-----------------|-----------------|-----------------|
B|-----------------|-----------------|-----------------|-----------------|
G|-4-4-4-4-4-4-7-7-|-7-7-7-6---------|-4-4-4-4-4-4-7-7-|-7-7-7-----------|
D|-2-2-2-2-2-2-5-5-|-5-5-5-4-0-------|-2-2-2-2-2-2-5-5-|-5-5-5-0---------|
A|-2-2-2-2-2-2-5-5-|-5-5-5-4-0-------|-2-2-2-2-2-2-5-5-|-5-5-5-0---------|
D|-2-2-2-2-2-2-5-5-|-5-5-5-4-0-------|-2-2-2-2-2-2-5-5-|-5-5-5-0---------|

e|-----------------|-----------------|-----------------|-----------------|
B|-----------------|-----------------|-----------------|-----------------|
G|-4-4-4-4-4-4-7-7-|-7-7-7-6---------|-4-4-4-4-4-4-7-7-|-7-7-7-----------|
D|-2-2-2-2-2-2-5-5-|-5-5-5-4-0-------|-2-2-2-2-2-2-5-5-|-5-5-5-0---------|
A|-2-2-2-2-2-2-5-5-|-5-5-5-4-0-------|-2-2-2-2-2-2-5-5-|-5-5-5-0---------|
D|-2-2-2-2-2-2-5-5-|-5-5-5-4-0-------|-2-2-2-2-2-2-5-5-|-5-5-5-0---------|

e|-----------------|-----------------|-----------------|-----------------|
B|-----------------|-----------------|-----------------|-----------------|
G|-4-4-4-4-4-4-7-7-|-7-7-7-6---------|-4-4-4-4-4-4-7-7-|-7-7-------------|
D|-2-2-2-2-2-2-5-5-|-5-5-5-4-0-------|-2-2-2-2-2-2-5-5-|-5-5-----x-x-x-x-|
A|-2-2-2-2-2-2-5-5-|-5-5-5-4-0-------|-2-2-2-2-2-2-5-5-|-5-5-----x-x-x-x-|
D|-2-2-2-2-2-2-5-5-|-5-5-5-4-0-------|-2-2-2-2-2-2-5-5-|-5-5-----x-x-x-x-|

e|-----------------|-----------------|-----------------|-----------------|
B|-----------------|-----------------|-----------------|-----------------|
G|-4-4---------4-4-|---------4-4-4-4-|-4-4---------4-4-|---------4-4-4-4-|
D|-2-2---------2-2-|---------2-2-2-2-|-2-2---------2-2-|---------2-2-2-2-|
A|-2-2---------2-2-|---------2-2-2-2-|-2-2---------2-2-|---------2-2-2-2-|
D|-2-2---------2-2-|---------2-2-2-2-|-2-2---------2-2-|---------2-2-2-2-|


Verse 1:

Rest for the First two lines then,
e|-----------------|-----------------|-----------------|-----------------|
B|-----------------|-----------------|-----------------|-----------------|
G|-4-4---------4-4-|---------4-4-4-4-|-4-4---------4-4-|---------4-4-4-4-|
D|-2-2---------2-2-|---------2-2-2-2-|-2-2---------2-2-|---------2-2-2-2-|
A|-2-2---------2-2-|---------2-2-2-2-|-2-2---------2-2-|---------2-2-2-2-|
D|-2-2---------2-2-|---------2-2-2-2-|-2-2---------2-2-|---------2-2-2-2-|



Chorus 1:

There is some Weird sound then it goes like this,
e|-----------------|-----------------|-----------------|-----------------|
B|-----------------|-----------------|-----------------|-----------------|
G|-4---4-4-4-4-7----|7---7-6---------|-4---4-4-4-4-7---|-7---7-----------|
D|-2---2-2-2-2-5---|-5---5-4-0-------|-2---2-2-2-2-5---|-5---5-0---------|
A|-2---2-2-2-2-5---|-5---5-4-0-------|-2---2-2-2-2-5---|-5---5-0---------|
D|-2---2-2-2-2-5---|-5---5-4-0-------|-2---2-2-2-2-5---|-5---5-0---------|

e|-----------------|-----------------|-----------------|-----------------|
B|-----------------|-----------------|-----------------|-----------------|
G|-4-4-4-4-4-4-7-7-|-7-7-7-6---------|-4-4-4-4-4-4-7-7-|-7-7-7-----------|
D|-2-2-2-2-2-2-5-5-|-5-5-5-4-0-------|-2-2-2-2-2-2-5-5-|-5-5-5-0---------|
A|-2-2-2-2-2-2-5-5-|-5-5-5-4-0-------|-2-2-2-2-2-2-5-5-|-5-5-5-0---------|
D|-2-2-2-2-2-2-5-5-|-5-5-5-4-0-------|-2-2-2-2-2-2-5-5-|-5-5-5-0---------|

e|-----------------|-----------------|-----------------|-----------------|
B|-----------------|-----------------|-----------------|-----------------|
G|-4-4-4-4-4-4-7-7-|-7-7-7-6---------|-4-4-4-4-4-4-7-7-|-7-7-7-----------|
D|-2-2-2-2-2-2-5-5-|-5-5-5-4-0-------|-2-2-2-2-2-2-5-5-|-5-5-5-0---------|
A|-2-2-2-2-2-2-5-5-|-5-5-5-4-0-------|-2-2-2-2-2-2-5-5-|-5-5-5-0---------|
D|-2-2-2-2-2-2-5-5-|-5-5-5-4-0-------|-2-2-2-2-2-2-5-5-|-5-5-5-0---------|

e|-----------------|-----------------|-----------------|-----------------|
B|-----------------|-----------------|-----------------|-----------------|
G|-4-4-4-4-4-4-7-7-|-7-7-7-6---------|-4-4-4-4-4-4-7-7-|-7-7-------------|
D|-2-2-2-2-2-2-5-5-|-5-5-5-4-0-------|-2-2-2-2-2-2-5-5-|-5-5-----x-x-x-x-|
A|-2-2-2-2-2-2-5-5-|-5-5-5-4-0-------|-2-2-2-2-2-2-5-5-|-5-5-----x-x-x-x-|
D|-2-2-2-2-2-2-5-5-|-5-5-5-4-0-------|-2-2-2-2-2-2-5-5-|-5-5-----x-x-x-x-|


Rap/Verse 2:

Rest for the First two lines then,
e|-----------------|-----------------|-----------------|-----------------|
B|-----------------|-----------------|-----------------|-----------------|
G|-----------------|-----------------|-----------------|-----------------|
D|-----------------|-----------------|-----------------|-----------------|
A|-----------------|-----------------|-----------------|-----------------|
D|--1714-1714-1714-|--1714-1714-1714-|--1714-1714-1714-|--1714-1714-1714-|

e|-----------------|-----------------|
B|-----------------|-----------------|
G|-----------------|-----------------|
D|-----------------|-----------------|
A|-----------------|-----------------|
D|--1714-1714-1714-|--1714-1714-1714-|

e|-----------------|-----------------|-----------------|-----------------|
B|-----------------|-----------------|-----------------|-----------------|
G|-4-4---------4-4-|---------4-4-4-4-|-4-4---------4-4-|---------4-4-4-4-|
D|-2-2---------2-2-|---------2-2-2-2-|-2-2---------2-2-|---------2-2-2-2-|
A|-2-2---------2-2-|---------2-2-2-2-|-2-2---------2-2-|---------2-2-2-2-|
D|-2-2---------2-2-|---------2-2-2-2-|-2-2---------2-2-|---------2-2-2-2-|

Chorus 2:

e|-----------------|-----------------|-----------------|-----------------|
B|-----------------|-----------------|-----------------|-----------------|
G|-4---4-4-4-4-7----|7---7-6---------|-4---4-4-4-4-7---|-7---7-----------|
D|-2---2-2-2-2-5---|-5---5-4-0-------|-2---2-2-2-2-5---|-5---5-0---------|
A|-2---2-2-2-2-5---|-5---5-4-0-------|-2---2-2-2-2-5---|-5---5-0---------|
D|-2---2-2-2-2-5---|-5---5-4-0-------|-2---2-2-2-2-5---|-5---5-0---------|

e|-----------------|-----------------|-----------------|-----------------|
B|-----------------|-----------------|-----------------|-----------------|
G|-4-4-4-4-4-4-7-7-|-7-7-7-6---------|-4-4-4-4-4-4-7-7-|-7-7-7-----------|
D|-2-2-2-2-2-2-5-5-|-5-5-5-4-0-------|-2-2-2-2-2-2-5-5-|-5-5-5-0---------|
A|-2-2-2-2-2-2-5-5-|-5-5-5-4-0-------|-2-2-2-2-2-2-5-5-|-5-5-5-0---------|
D|-2-2-2-2-2-2-5-5-|-5-5-5-4-0-------|-2-2-2-2-2-2-5-5-|-5-5-5-0---------|

e|-----------------|-----------------|-----------------|-----------------|
B|-----------------|-----------------|-----------------|-----------------|
G|-4-4-4-4-4-4-7-7-|-7-7-7-6---------|-4-4-4-4-4-4-7-7-|-7-7-7-----------|
D|-2-2-2-2-2-2-5-5-|-5-5-5-4-0-------|-2-2-2-2-2-2-5-5-|-5-5-5-0---------|
A|-2-2-2-2-2-2-5-5-|-5-5-5-4-0-------|-2-2-2-2-2-2-5-5-|-5-5-5-0---------|
D|-2-2-2-2-2-2-5-5-|-5-5-5-4-0-------|-2-2-2-2-2-2-5-5-|-5-5-5-0---------|

e|-----------------|-----------------|-----------------|-----------------|
B|-----------------|-----------------|-----------------|-----------------|
G|-4-4-4-4-4-4-7-7-|-7-7-7-6---------|-4-4-4-4-4-4-7-7-|-7-7-------------|
D|-2-2-2-2-2-2-5-5-|-5-5-5-4-0-------|-2-2-2-2-2-2-5-5-|-5-5-----x-x-x-x-|
A|-2-2-2-2-2-2-5-5-|-5-5-5-4-0-------|-2-2-2-2-2-2-5-5-|-5-5-----x-x-x-x-|
D|-2-2-2-2-2-2-5-5-|-5-5-5-4-0-------|-2-2-2-2-2-2-5-5-|-5-5-----x-x-x-x-|

Arpeggio:

8x
e|-----------------|-----------------|
B|----------12-----|-------12~-------|
G|-----9-----------|-------11~-------|
D|-9---------------|-------12~-------|
A|-----------------|--------9~-------|
D|-----------------|-----------------|

Solo:

Tremolo Picking, Each note is played twice
e|-----------------|-----------------|-----------------|--------------------|
B|-----------------|-----------------|-----------------|--------------------|
G|-----------------|-----------------|-----------------|--------------------|
D|-----------------|---------7-7-7-7-|-7-7-7-7-9-9-9-9-|-9-9-9-9-12-12-12-12|
A|-7-7-7-7-9-9-9-9-|-10101010--------|-----------------|--------------------|
D|-----------------|-----------------|-----------------|--------------------|


e|------------------------|
B|------------------------|
G|------------------------|
D|-12-12-12-12-12-12-12-12|
A|------------------------|
D|------------------------|

e|-----------------|-----------------|-------------------|---------------------|
B|-----------------|-----------------|-------------------|---------------------|
G|-9-9-9-9-9-9-----|9-9-9-9-9-9-9-9--|-12-12-12-11-11-11-|-9-9-9-7-7-7---------|
D|-------------5-5-|-----------------|-------------------|-------------9-7-7-7-|
A|-----------------|-----------------|-------------------|---------------------|
D|-----------------|-----------------|-------------------|---------------------|

e|-----------------|----------------|------------------------|-----------------|
B|-----------------|----------------|------------------------|-----------------|
G|-----------------|----------------|------------------------|-----------------|
D|-9-9-9-12-12-12--|-9-9-9-7-7-9-9--|-12-12-9-9-9-9-9-9-9-9--|-----------------|
A|-----------------|----------------|------------------------|-9-9-9-9-9-9-9-9-|
D|-----------------|----------------|------------------------|-----------------|

e|-----------------|-------------------------|-----------------|-----------------|
B|-----------------|-------------------------|-----------------|-----------------|
G|-----------------|-------------------------|-----------------|-----------------|
D|-9-9-9-11-11-11--|-12-12-12-12-12-12-12-12-|-11-11-11-9-9-9--|-7-7-7-7-7-7-7-7-|
A|-----------------|-------------------------|-----------------|-----------------|
D|-----------------|-------------------------|-----------------|-----------------|
 
e|-----------------|------------------------|---------------------|-------------------------|
B|-----------------|------------------------|---------------------|-------------------------|
G|-9-9-9-11-11-11--|-12-12-12-12-12-12-12-12|-11-11-11-9-9-9-12-12|-11-11-11-11-11-11-11-11-|
D|-----------------|------------------------|---------------------|-------------------------|
A|-----------------|------------------------|---------------------|-------------------------|
D|-----------------|------------------------|---------------------|-------------------------|
  
e|-------------|-------------|-------------|-------------|
B|-------------|-------------|-------------|-------------|
G|-13-13-13-13-|-12-12-12-12-|-11-11-11-11-|-14-14-14-14-|
D|-------------|-------------|-------------|-------------|
A|-------------|-------------|-------------|-------------|
D|-------------|-------------|-------------|-------------|
  
e|-------------|-------------|-------------|-------------|
B|-------------|-------------|-------------|-------------|
G|-13-13-13-13-|-12-12-12-12-|-11-11-11-11-|-9--9--9--9--|
D|-------------|-------------|-------------|-------------|
A|-------------|-------------|-------------|-------------|
D|-------------|-------------|-------------|-------------|

e|-------------|--------------|------|
B|-------------|--------------|-10p~-|
G|-9p~---------|-9-7-x-9p~-9p~|------|
D|-------------|--------------|------|
A|-------------|--------------|------|
D|-------------|--------------|------|

Outro (I Think So):

Comes right after the 10p~
e|-----------------|-----------------|-----------------|-----------------|
B|-----------------|-----------------|-----------------|-----------------|
G|-----------------|-----------------|-----------------|-----------------|
D|-2-2-x-x-x-x-2-2-|-x-x-x-x-2-2-2-2-|-2-2-x-x-x-x-2-2-|-x-x-x-x-2-2-2-2-|
A|-2-2-x-x-x-x-2-2-|-x-x-x-x-2-2-2-2-|-2-2-x-x-x-x-2-2-|-x-x-x-x-2-2-2-2-|
D|-2-2-x-x-x-x-2-2-|-x-x-x-x-2-2-2-2-|-2-2-x-x-x-x-2-2-|-x-x-x-x-2-2-2-2-|
   
e|-----------------|-----------------|-----------------|-----------------|
B|-----------------|-----------------|-----------------|-----------------|
G|-----------------|-----------------|-----------------|-----------------|
D|-2-2-x-x-x-x-2-2-|-x-x-x-x-2-2-2-2-|-2-2---------2-2-|-----------------|
A|-2-2-x-x-x-x-2-2-|-x-x-x-x-2-2-2-2-|-2-2---------2-2-|-----------------|
D|-2-2-x-x-x-x-2-2-|-x-x-x-x-2-2-2-2-|-2-2---------2-2-|-----------------|

Comments and Improvements are welcome... 
Any help, You are more than welcome to contact me...
                        

************************************

| /   slide up
| \   slide down
| h   hammer-on
| p   pull-off
| ~   vibrato
| +   harmonic
| x   Mute note
| b   Bend
| pb  Pre-bend
| br  Bend release
| pbr Pre-bend release
| brb Bend release bend

************************************

            
            
Suggest correction
Creating personal tab
Creating personal tab
You can edit any tab online and save it as your Personal.

You can edit, replace or remove any tab part or add personal notes – all changes will be seen only by you.

Personal tabs can be accessed anytime from any device, even offline.
Learn more »
comments
print report bad tab
guest
You may want to rate the tab now too:
select rating
Wanna post a correction for this tab? Suggest correction