Oops, an error
Loading. Please wait.

Leave Out All The Rest Tab

version 1
version 1

Acoustic

Whole song

Interactive

4,311 views 3 this week
no commentswrite comment
1 2 3 4 5
excellent!
x 3
add to favorites
launch autoscroll
font size
0
reset
how to read this tab
guitar tuner
Tab Pro tools
  • play this tab
  • loop segment
  • change instrument
  • show fretboard
  • metronome
×
Best way to learn
"Leave Out All The Rest"
Autoscroll
slow
fast
+/-
esc
set tempo
stop
Contributor
Difficulty
Leave Out All The Rest (Acoustic)
Linkin Park
Minutes To Midnight

Tabbed By Lec Segundo

Tuning: Standard (EADGBe)

Legend:

~ - Let Ring
/ - Slide
_______________________________________________

INTRO

e|----------------------------------1-1-1-11-1-1/3-3-3-33-3--|
B|-----1-------1-------1-------1----1-1-1-11-1-1/3-3-3-33-3--|
G|-------2-------2-------0-------0--2-2-2-22-2-2/4-4-4-44-4--|  
D|---2-------2-------2-------2------3-3-3-33-3-3/5-5-5-55-5--|
A|-0-------0-------3-------3--------3-3-3-33-3-3/5-5-5-55-5--|
E|----------------------------------1-1-1-11-1-1/3-3-3-33-3--|

               or

e|-----0-------0-------0-------0----1-1-1-11-1-1/3-3-3-33-3--|
B|-------1-------1-------1-------1--1-1-1-11-1-1/3-3-3-33-3--|
G|---2-------2-------0-------0------2-2-2-22-2-2/4-4-4-44-4--|
D|----------------------------------3-3-3-33-3-3/5-5-5-55-5--|
A|-0-------0-------3-------3--------3-3-3-33-3-3/5-5-5-55-5--|
E|----------------------------------1-1-1-11-1-1/3-3-3-33-3--|

VERSE

e|----------------------------------1-1-1-11-1-1/3-3-3-33-3--|
B|-----1-------1-------1-------1----1-1-1-11-1-1/3-3-3-33-3--|
G|-------2-------2-------0-------0--2-2-2-22-2-2/4-4-4-44-4--|    2x  
D|---2-------2-------2-------2------3-3-3-33-3-3/5-5-5-55-5--|
A|-0-------0-------3-------3--------3-3-3-33-3-3/5-5-5-55-5--|
E|----------------------------------1-1-1-11-1-1/3-3-3-33-3--|

               or

e|-----0-------0-------0-------0----1-1-1-11-1-1/3-3-3-33-3--|
B|-------1-------1-------1-------1--1-1-1-11-1-1/3-3-3-33-3--|
G|---2-------2-------0-------0------2-2-2-22-2-2/4-4-4-44-4--|    2x
D|----------------------------------3-3-3-33-3-3/5-5-5-55-5--|
A|-0-------0-------3-------3--------3-3-3-33-3-3/5-5-5-55-5--|
E|----------------------------------1-1-1-11-1-1/3-3-3-33-3--|

REFRAIN

e|--1-1-1-11-1-11-3~--|
B|--1-1-1-11-1-11-3~--|
G|--2-2-2-22-2-22-4~--|  
D|--3-3-3-33-3-33-5~--|
A|--3-3-3-33-3-33-5~--|
E|--1-1-1-11-1-11-3~--|

         or

e|--------------------|
B|--1-1-1-11-1-11-3~--|
G|--2-2-2-22-2-22-4~--|  
D|--3-3-3-33-3-33-5~--|
A|--3-3-3-33-3-33-5~--|
E|--------------------|

CHORUS

e|-0-0-0-00-0-00-0-0-0-00-0-00-1-1-1-11-1-1/3-3-3-33-3--|
B|-1-1-1-11-1-11-1-1-1-11-1-11-1-1-1-11-1-1/3-3-3-33-3--|
G|-2-2-2-22-2-22-0-0-0-00-0-00-2-2-2-22-2-2/4-4-4-44-4--|    3x
D|-2-2-2-22-2-22-2-2-2-22-2-22-3-3-3-33-3-3/5-5-5-55-5--|
A|-0-0-0-00-0-00-3-3-3-33-3-33-3-3-3-33-3-3/5-5-5-55-5--|
E|-----------------------------1-1-1-11-1-1/3-3-3-33-3--|

REPEAT VERSE
REPEAT REFRAIN
REPEAT CHORUS

BRIDGE

e|--1-1-1-11-1-11-3-3-3-33-3-3--|
B|--1-1-1-11-1-11-3-3-3-33-3-3--|
G|--2-2-2-22-2-22-4-4-4-44-4-4--|    3x  
D|--3-3-3-33-3-33-5-5-5-55-5-5--|
A|--3-3-3-33-3-33-5-5-5-55-5-5--|
E|--1-1-1-11-1-11-3-3-3-33-3-3--|

e|--1-1-1-11-1-11-3~--|
B|--1-1-1-11-1-11-3~--|
G|--2-2-2-22-2-22-4~--|
D|--3-3-3-33-3-33-5~--|
A|--3-3-3-33-3-33-5~--|
E|--1-1-1-11-1-11-3~--|

         or

e|------------------------------|
B|--1-1-1-11-1-11-3-3-3-33-3-3--|
G|--2-2-2-22-2-22-4-4-4-44-4-4--|    3x 
D|--3-3-3-33-3-33-5-5-5-55-5-5--|
A|--3-3-3-33-3-33-5-5-5-55-5-5--|
E|------------------------------|

e|--------------------|
B|--1-1-1-11-1-11-3~--|
G|--2-2-2-22-2-22-4~--|
D|--3-3-3-33-3-33-5~--|
A|--3-3-3-33-3-33-5~--|
E|--------------------|

REPEAT CHORUS

BRIDGE 2

e|--0-0-0-00-0-00-0-0-0-00-0-0--|
B|--1-1-1-11-1-11-3-3-3-33-3-3--|
G|--2-2-2-22-2-22-4-4-4-44-4-4--|    3x
D|--3-3-3-33-3-33-5-5-5-55-5-5--|
A|------------------------------|
E|------------------------------|

e|--0-0-0-00-0-00-0~--|
B|--1-1-1-11-1-11-3~--|
G|--2-2-2-22-2-22-4~--|
D|--3-3-3-33-3-33-5~--|
A|--------------------|
E|--------------------|

OUTRO

e|--5~--|
B|--5~--|
G|--5~--|
D|--7~--|
A|--7~--|
E|--5~--|

END

Please Rate!,... :o
comments
We did not receive enough feedback on this tab! Please rate:
print report bad tab
1 2 3 4 5
I want to post or [tab]
guest
You may want to rate the tab now too:
select rating
Please do not post tabs as comments. Select "correction" instead!