Oops, an error
Loading. Please wait.

Leave Out All The Rest Bass Tab

version 1
version 1

Whole song

Interactive

7,714 views 12 this week
no commentswrite comment
1 2 3 4 5
1 last vote to show rating
add to favorites
launch autoscroll
font size
0
reset
guitar tuner
Autoscroll
slow
fast
+/-
esc
set tempo
stop
Help us to improve Ultimate-Guitar.com Take our survey!
×
Author
Difficulty
novice
tuning
DGCF
i use it for this song

it's based on full notes, but i play chorus with eights, i like it that way.

Verse [repeat until chorus]

G------------------|
D------------------|
A------------------|
E---7--10--3--0----|

Prechorus

G------------------|
D------------------|
A------------------|
E---3-------0------|

Chorus [repeat until verse/bridge]

G------------------|
D------------------|
A------------------|
E---7--10--15--12--|

Bridge [repeat until chorus]

G------------------|
D------------------|
A------------------|
E---15--12--7--10--|

outro
there's only cello, but you can play verse or chorus part.
Suggest correction
Give kudos to tab author, rate the tab!
1 2 3 4 5
comments
print report bad tab
guest
You may want to rate the tab now too:
select rating
Wanna post a correction for this tab? Suggest correction