Oops, an error
Loading. Please wait.

Lies Greed Misery Tab

version 1
version 1

Whole song

Interactive

6,842 views 3 this week
no commentswrite comment
1 2 3 4 5
x 5
add to favorites
launch autoscroll
font size
0
reset
how to read this tab
guitar tuner
Autoscroll
slow
fast
+/-
esc
set tempo
stop
Help us to improve Ultimate-Guitar.com Take our survey!
×
Author
Difficulty
Tuning
novice
D A D G B E
Watch my cover: http://www.youtube.com/watch?v=MIeYIA6yVx4


Drop D: D A D G B E


 SYNTH

 -Intro

 C# E *5
 A D  *4
 A C# *1
 E A  *5
 F# B *5


              Guitarra 1

 1-----------------------------------|
 2-----------------------------------|   Mike's Verses
 3-----------------------------------|
 4-x-x-x-x-x-----------------x-x-x-x-|
 5-x-x-x-x-x-----------------x-x-x-x-|
 6-x-x-x-x-x-----------------x-x-x-x-|

 1-----------------------------------|
 2-----------------------------------|
 3-----------------------------------|
 4-x-x-x-x-x-----------------x-x-x-x-|
 5-x-x-x-x-x-----------------x-x-x-x-|
 6-x-x-x-x-x-----------------x-x-x-x-|

 1------------------------------------------|
 2------------------------------------------|
 3------------------------------------------| First Chorus
 4-7-7-7-7-7--7-7-7-7-7-4-4-4-4-4-5-5-5-5-5-|        *2
 5-7-7-7-7-7--7-7-7-7-7-4-4-4-4-4-5-5-5-5-5-|
 6-7-7-7-7-7--7-7-7-7-7-4-4-4-4-4-5-5-5-5-5-|


 1-----------------------------------|
 2-----------------------------------|   Mike's Verses
 3-----------------------------------|
 4-x-x-x-x-------------------x-x-x-x-|
 5-x-x-x-x-------------------x-x-x-x-|
 6-x-x-x-x-------------------x-x-x-x-|

 1-----------------------------------|
 2-----------------------------------|
 3-----------------------------------|
 4-x-x-x-x---------------------------|
 5-x-x-x-x---------------------------|
 6-x-x-x-x---------------------------|

 1--------------------------------------------------|
 2--------------------------------------------------|
 3--------------------------------------------------|
 4-x-x-x-x-7-7-7-7-7--7-7-7-7-7-4-4-4-4-4-5-5-5-5-5-|
 5-x-x-x-x-7-7-7-7-7--7-7-7-7-7-4-4-4-4-4-5-5-5-5-5-|
 6-x-x-x-x-7-7-7-7-7--7-7-7-7-7-4-4-4-4-4-5-5-5-5-5-|


 1------------------------------------------|
 2------------------------------------------|
 3------------------------------------------|   Second Chorus
 4-7-7-7-7-7--7-7-7-7-7-4-4-4-4-4-5-5-5-5-5-|         *3
 5-7-7-7-7-7--7-7-7-7-7-4-4-4-4-4-5-5-5-5-5-|
 6-7-7-7-7-7--7-7-7-7-7-4-4-4-4-4-5-5-5-5-5-|


 1----------------------------|
 2----------------------------|
 3----------------------------|  BREAK "you did it to yourself"
 4----------------------------|              *7
 5-----------0----------------|
 6-0-5-0-5-4---7-7-7-7-7-7----|


 1----------------------------|
 2----------------------------|
 3----------------------------|
 4----------------------------|
 5-----------0----------------|
 6-0-5-0-5-4------------------|


 1------------------------------------|
 2------------------------------------|
 3------------------------------------|        OUTRO
 4-x-x-x-x-0-5-0-5-4-2-7-7-7-7-7-7----|
 5-x-x-x-x-0-5-0-5-4-2-7-7-7-7-7-7----|
 6-x-x-x-x-0-5-0-5-4-2-7-7-7-7-7-7----|


 1-----------------------|
 2-----------------------|
 3-----------------------|
 4-0-5-0-5-4-7-7-7-7-----|
 5-0-5-0-5-4-7-7-7-7-----|
 6-0-5-0-5-4-7-7-7-7-----|


 1--------------------------|
 2--------------------------|
 3--------------------------|
 4-0-5-0-5-4-2-7-7-7-7-7-7--|
 5-0-5-0-5-4-2-7-7-7-7-7-7--|
 6-0-5-0-5-4-2-7-7-7-7-7-7--|


 1--------------------------|
 2--------------------------|
 3--------------------------|
 4-0-5-0-5-4-7-7-7-7-7-7-7--|
 5-0-5-0-5-4-7-7-7-7-7-7-7--|
 6-0-5-0-5-4-7-7-7-7-7-7-7--|

 1--------------------------|
 2--------------------------|
 3--------------------------|
 4-0-5-0-5-4-2-7-7-7-7-7-7--|
 5-0-5-0-5-4-2-7-7-7-7-7-7--|
 6-0-5-0-5-4-2-7-7-7-7-7-7--|

 1-----------------------|
 2-----------------------|
 3-----------------------|
 4-0-5-0-5-4-7-7-7-7-----|
 5-0-5-0-5-4-7-7-7-7-----|
 6-0-5-0-5-4-7-7-7-7-----|


 1--------------------------|
 2--------------------------|
 3--------------------------|
 4-0-5-0-5-4-2-7-7-7-7-7-7--|
 5-0-5-0-5-4-2-7-7-7-7-7-7--|
 6-0-5-0-5-4-2-7-7-7-7-7-7--|


 1--------------------------|
 2--------------------------|
 3--------------------------|
 4-0-5-0-5-4-7--7--7-7-7-7--|
 5-0-5-0-5-4-7--7--7-7-7-7--|
 6-0-5-0-5-4-7--7--7-7-7-7--|


            Guitarra 2



 1-----------------------------------|
 2-10---10---10---10---10---10-------|   INTRO
 3----9----9----9----9----9----9-----|
 4-----------------------------------|
 5-----------------------------------|
 6-----------------------------------|


 1-----------------------------------|
 2-----------------------------------|   Mike's Verses
 3-----------------------------------|
 4-x-x-x-x-x-----------------x-x-x-x-|
 5-x-x-x-x-x-----------------x-x-x-x-|
 6-x-x-x-x-x-----------------x-x-x-x-|

 1-----------------------------------|
 2-----------------------------------|
 3-----------------------------------|
 4-x-x-x-x-x-----------------x-x-x-x-|
 5-x-x-x-x-x-----------------x-x-x-x-|
 6-x-x-x-x-x-----------------x-x-x-x-|

 1-----------------------------------|
 2-----------------------------------|
 3-----------------------------------| First Chorus
 4-7-------------------------x-x-x-x-|        *2
 5-7-------------------------x-x-x-x-|
 6-7-------------------------x-x-x-x-|


 1------------|
 2------------|   Mike's Verses
 3------------|      *3
 4-x-x-x-x----|
 5-x-x-x-x----|
 6-x-x-x-x----|

 1-----------------------------------|
 2-----------------------------------|
 3-----------------------------------|     Second Chorus
 4-x-x-x-x-7-----------------x-x-x-x-|
 5-x-x-x-x-7-----------------x-x-x-x-|
 6-x-x-x-x-7-----------------x-x-x-x-|

 1-----------------------------------|
 2-----------------------------------|
 3-----------------------------------|        *3
 4-7-------------------------x-x-x-x-|
 5-7-------------------------x-x-x-x-|
 6-7-------------------------x-x-x-x-|


 1-----------------------------------|
 2-10---10---10---10---10---10-------|   BREAK "you did it to yourself"
 3----9----9----9----9----9----9-----|                *5
 4-----------------------------------|
 5-----------------------------------|
 6-----------------------------------|


 1------------------------------------|
 2------------------------------------|
 3------------------------------------|        OUTRO
 4-x-x-x-x-0-5-0-5-4-2-x-x-x-x-x-x-x--|
 5-x-x-x-x-0-5-0-5-4-2-x-x-x-x-x-x-x--|
 6-x-x-x-x-0-5-0-5-4-2-x-x-x-x-x-x-x--|


 1-----------------------|
 2-----------------------|
 3-----------------------|
 4-0-5-0-5-4-2-x-x-x-----|
 5-0-5-0-5-4-2-x-x-x-----|
 6-0-5-0-5-4-2-x-x-x-----|


 1----------------------------|
 2----------------------------|
 3----------------------------|        *3
 4-0-5-0-5-4-2-x-x-x-x-x-x-x--|
 5-0-5-0-5-4-2-x-x-x-x-x-x-x--|
 6-0-5-0-5-4-2-x-x-x-x-x-x-x--|


 1-----------------------|
 2-----------------------|
 3-----------------------|
 4-0-5-0-5-4-2-x-x-x-----|
 5-0-5-0-5-4-2-x-x-x-----|
 6-0-5-0-5-4-2-x-x-x-----|


 1----------------------------|
 2----------------------------|
 3----------------------------|
 4-0-5-0-5-4-2-x-x-x-x-x-x-x--|
 5-0-5-0-5-4-2-x-x-x-x-x-x-x--|
 6-0-5-0-5-4-2-x-x-x-x-x-x-x--|


 1--------------------------|
 2--------------------------|
 3--------------------------|
 4-0-5-0-5-4-x--x--x-x-x-x--|
 5-0-5-0-5-4-x--x--x-x-x-x--|
 6-0-5-0-5-4-x--x--x-x-x-x--|
Suggest correction
comments
print report bad tab
guest
You may want to rate the tab now too:
select rating
Wanna post a correction for this tab? Suggest correction