Oops, an error
Loading. Please wait.

Little Things Give You Away Tab

version 1
version 1

Whole song

Interactive

55,927 views 6 this week
16 commentsread comments
1 2 3 4 5
accurate
x 22
add to favorites
launch autoscroll
font size
0
reset
how to read this tab
guitar tuner
Tab Pro tools
  • play this tab
  • loop segment
  • change instrument
  • show fretboard
  • metronome
×
Best way to learn
"Little Things Give You Away"
Autoscroll
slow
fast
+/-
esc
set tempo
stop
Contributor
Difficulty
Tuning
intermediate
D A D G B E
Song - The Little Things Give You Away
Artist - Linkin Park
Album - Minutes to Midnight
Tabbed by: Erik Acosta (me12345)
Email: salivafan1@sbcglobal.net

Length of Song: 6:25
Time Signature: mostly 3/4 and occasional 4/4


This is my first tab I've created. I put quite some time and work into this tab. I would appreciate it
if you don't flame at me. If you have and questions, comments, or corrections please 
me via email or comment.
Thank you and enjoy.

|-|  Measures of rest(s)
 h   Hammer-on
 ~   Vibrato, let note(s) ring


Drop D Tuning

Intro - Verse 1

Guitar 1 (Acoustic) - 0:22

E |------------------------------------------------|
B |------------------------------------------------|
G |-5-5-5-5-5-5-5-5-5-5-4-2-7-7-7-757-7-757-7572-2-|
D |-5-5-5-5-5-5-5-5-5-5-4-2-7-7-7-757-7-757-7572-2-|
A |-3-3-3-3-3-3-3-3-3-3-2-0-5-5-7-535-7-535-5350-0-|x4
D |------------------------------------------------|

Pre-Chorus - 1:04

E |------------------------------------------------------------------|
B |------------------------------------------------------------------|
G |-5-5-5-5-5-5-2-2-2-2-2-2-7-7-7-757-757-7-7-7-7-2-2-5-5-5-5-5-5-2~-|
D |-5-5-5-5-5-5-2-2-2-2-2-2-7-7-7-757-757-7-7-7-7-2-2-5-5-5-5-5-5-2~-|
A |-3-3-3-3-3-3-0-0-0-0-0-0-5-5-7-535-535-5-5-7-5-0-0-3-3-3-3-3-3-0~-|
D |------------------------------------------------------------------|

Chorus 1:19

E |-------------------------|
B |-------------------------|
G |-------------------------|
D |-7-7-7-5-5-5-0-0-0-2-2-2-|
A |-7-7-7-5-5-5-0-0-0-2-2-2-| x2
D |-7-7-7-5-5-5-0-0-0-2-2-2-|

E |----------------------------|
B |----------------------------|
G |----------------------------|
D |-7-7-7-5-5-5-10-10-10-7-7-7-|
A |-7-7-7-5-5-5-10-10-10-7-7-7-|
D |-7-7-7-5-5-5-10-10-10-7-7-7-|

E |----------------------|
B |----------------------|
G |----------------------|
D |-3-3-3-3-3-3-5-5-5-5~-|
A |-3-3-3-3-3-3-5-5-5-5~-|
D |-3-3-3-3-3-3-5-5-5-5~-|


Verse 2 - 1:40

Guitar 1 (Acoustic)

E |-------------------------------------------------|
B |-------------------------------------------------|
G |-5-5-5-5-5-5-5-5-5-5-4-2-7-7-7-757-7-757-757-2-2-|
D |-5-5-5-5-5-5-5-5-5-5-4-2-7-7-7-757-7-757-757-2-2-|
A |-3-3-3-3-3-3-3-3-3-3-2-0-5-5-7-535-7-535-535-0-0-|x3
D |-------------------------------------------------|

Guitar 2 (Electric)

E |------------------------------------------------|
B |------------------------------------------------|
G |-5-5-5-5-5-5-5-5-5-5-4-2-7-7-7757-7-757-7-757-7-|
D |------------------------------------------------|
A |------------------------------------------------|
D |------------------------------------------------|

E |-----------------------------------------------------|
B |-----------------------------------------------------|
G |-5-5-5-5-5-5-5-5-5-5-4-2-7-7-7757-7-757-7-757-7-7544-|
D |-----------------------------------------------------|
A |-----------------------------------------------------|
D |-----------------------------------------------------|

E |------------------------------------------------|
B |------------------------------------------------|
G |-5-5-5-5-5-5-5-5-5-5-4-2-7-7-7757-7-757-7-757-7-|
D |------------------------------------------------|
A |------------------------------------------------|
D |------------------------------------------------|

Pre-Chorus - 2:10

Guitar 1 (Acoustic)

E |----------------------------------------------------------------------|
B |----------------------------------------------------------------------|
G |-5-5-5-5-5-5-2-2-2-2-2-2-5-5-5-5-5-5-2-2-2-2-2-2-5-5-5-5-5-5-2-2-2-2~-|
D |-5-5-5-5-5-5-2-2-2-2-2-2-5-5-5-5-5-5-2-2-2-2-2-2-5-5-5-5-5-5-2-2-2-2~-|
A |-3-3-3-3-3-3-0-0-0-0-0-0-3-3-3-3-3-3-0-0-0-0-0-0-3-3-3-3-3-3-0-0-0-0~-|
D |----------------------------------------------------------------------|

Guitar 2 (Electric)
E |----------------------------------------------------------------------|
B |-5--5--5--5--5--5--5--5--5--5--8--8--7--7--7--7--8--8--8-5-7--7-85757-|
G |----------------------------------------------------------------------|
D |-------------------------------------------not certain on this part^--|
A |----------------------------------------------------------------------|
D |----------------------------------------------------------------------|

E |-------------------------------------|
B |-7--7--5--5--5--5--5--5--5--5--5--5~-|
G |-------------------------------------|
D |-------------------------------------|
A |-------------------------------------|
D |-------------------------------------|

Chorus (Electric) - 2:26

Guitar 1
E |-------------------------|
B |-------------------------|
G |-------------------------|
D |-7-7-7-5-5-5-0-0-0-2-2-2-|
A |-7-7-7-5-5-5-0-0-0-2-2-2-| x2
D |-7-7-7-5-5-5-0-0-0-2-2-2-|

E |----------------------------|
B |----------------------------|
G |----------------------------|
D |-7-7-7-5-5-5-10-10-10-7-7-7-|
A |-7-7-7-5-5-5-10-10-10-7-7-7-|
D |-7-7-7-5-5-5-10-10-10-7-7-7-|

            E |----------------------|
            B |----------------------|
1st Ending  G |----------------------|
            D |-3-3-3-3-3-3-5-5-5-5~-|
            A |-3-3-3-3-3-3-5-5-5-5~-| Repeat Chorus
            D |-3-3-3-3-3-3-5-5-5-5~-|

            E |----------------------------------------|
            B |----------------------------------------|
2nd Ending  G |----------------------------------------|
            D |-3-3-3-3-3-3-3-3-3-3-3-3-5-5-5-5-5-5-5~-|
            A |-3-3-3-3-3-3-3-3-3-3-3-3-5-5-5-5-5-5-5~-|
            D |-3-3-3-3-3-3-3-3-3-3-3-3-5-5-5-5-5-5-5~-|

Guitar 2 (Electric)
E |-----------------------------|
B |-10-10-10-8-8-8--------------|
G |-----------------7-7-7-9-9-9-|
D |-----------------------------|
A |-----------------------------| x2
D |-----------------------------|

E |----------------------------------|
B |-10-10-10-8-8-8-13-13-13-12-12-12-|
G |----------------------------------|
D |----------------------------------|
A |----------------------------------|
D |----------------------------------|

            E |-------------------------------|
            B |-------------------------------|
1st Ending  G |-10-10-10-10-10-10-9-9-9-9-9-9-|
            D |-------------------------------|
            A |-------------------------------| Repeat Chorus
            D |-------------------------------|

            E |----------------------------------------------------|
            B |----------------------------------------------------|
2nd Ending  G |-10-10-10-10-10-10-10-10-10-10-10-10-9-9-9-9-9-9-9~-|
            D |----------------------------------------------------|
            A |----------------------------------------------------|
            D |----------------------------------------------------|


Solo - 3:12


Guitar 1

Nothing until 3:32

Guitar 2 (Background Notes)

E |------|-|------|-|------|-|------|-|------|------|------|-|
B |------|-|------|-|------|-|------|-|------|------|------|-|
G |------|-|------|-|------|-|------|-|------|------|------|-|
D |------|-|------|-|------|-|------|-|--7~--|------|------|-|
A |--7~--|-|--7~--|-|--9~--|-|--7~--|-|------|--7~--|--9~--|-|
D |------|-|------|-|------|-|------|-|------|------|------|-|
         [1]      [1]      [3]      [1)                    [1]
          ^
   # of rest measures

(3:30)

Guitar 1 Enters (3:32)
             \/
E |-----|---------|--------|-|-----|----------|----|-|
B |-----|---------|--------|-|-----|----------|----|-|
G |-----|---------|--------|-|-----|----------|----|-|
D |-----|-----5-4-|-2~-----|-|-----|-----2-2--|-4~-|-|
A |-----|---------|--------|-|-----|----------|----|-| x2
D |-----|---------|--------|-|-----|----------|----|-|
                                                      \
Guitar 2 (Background Notes)                            } play in unison
                                                      /
E |-----|---------|--------|-|-----|----------|----|-|
B |-----|---------|--------|-|-----|----------|----|-|
G |-----|---------|--------|-|-----|----------|----|-|
D |-----|---------|--------|-|-7~--|----------|----|-|
A |-10~-|-9~------|-7~-----|-|-----|-7~-------|-9~-|-|
D |-----|---------|--------|-|-----|----------|----|-|
                           [1]                     [1]

E |-----|---------|----|-----|-|--------------|-|------|
B |-----|---------|----|-----|-|--------------|-|------|
G |-----|---------|----|-5~--|-|-5~-----------|-|-5~---|
D |-----|---------|----|-----|-|--------------|-|------|
A |-10~-|-9~------|-7~-|-----|-|--------------|-|------|
D |-----|---------|----|-----|-|--------------|-|------|
                             [1]              [1]

Guitar 1 Solo - 3:52

E |---------|----------------5h7~~7-5--3--5----------|
B |---8-7-5-|-5~----5--5--5------------------7~h8h7--|
G |---------|----------------------------------------|
D |---------|----------------------------------------|
A |---------|----------------------------------------| x2
D |---------|----------------------------------------|

E |-------------------------10-10-10------10-10-10-14~--10-10-10-|
B |-8-7-5-5-3-5-7-5-7-8-7-8----------10~-------------------------|
G |--------------------------------------------------------------|
D |--------------------------------------------------------------|
A |--------------------------------------------------------------|
D |--------------------------------------------------------------|

E |-12-10-12-14-12-14-15-14-15-17-17-17---------------------------|
B |-------------------------------------19~-19-20-19-15~-15-15-15-|
G |---------------------------------------------------------------|
D |---------------------------------------------------------------|
A |---------------------------------------------------------------|
D |---------------------------------------------------------------|

Guitar 2
E |---------|-------------------------------------------------|
B |---------|-------------------------------------------------|
G |---------|-------------------------------------------------|
D |---------|-2-2-2-2-2-2-5-5-5-5-5-5-0-0-0-0-0-0-4-4-4-4-4-4-|
A |---------|-2-2-2-2-2-2-5-5-5-5-5-5-0-0-0-0-0-0-4-4-4-4-4-4-| x4
D |---------|-2-2-2-2-2-2-5-5-5-5-5-5-0-0-0-0-0-0-4-4-4-4-4-4-|


Guitar 3 (continued background note)

E |-|----|
B |-|----|         This is continuously played
G |-|-5~-|             throughout the solos.
D |-|----------- \      I believe this part is pre-recorded.
A |-|----|x14--- \
D |-|----|
  [1]


Outro - 4:34

Guitar 1

E |-------------------------------------------------|
B |-15-15-15-15-17-17-17-17-19-19-19-19-17-17-17-17-|
G |-------------------------------------------------|
D |-------------------------------------------------|
A |-------------------------------------------------|
D |-------------------------------------------------|

E |-------------------------------------------|
B |-15-15-15-15-17-17-17-17-19-17-19-17-17-17-|
G |-------------------------------------------|
D |-------------------------------------------|
A |-------------------------------------------| x2
D |-------------------------------------------|


E |------------------------------------------------|
B |-15-15-15-15-17-17-17-17-19-15-19-17-1717171717-|
G |------------------------------------------------|
D |------------------------------------------------|
A |------------------------------------------------|
D |------------------------------------------------|

(5:16)                                        __
E |-------------------------------------------|------- \
B |-15-15-15-15-17-17-17-17-19-17-19-17-17-17-| ------ \
G |-------------------------------------------|  ----- \
D |-------------------------------------------|   ---- \
A |-------------------------------------------|    --- \
D |-------------------------------------------|     -- \
                                                      }x6
E |------------------------------------------------| /
B |-15-15-15-15-17-17-17-17-19-17-19-17-1717171717-|/
G |------------------------------------------------|
D |------------------------------------------------|
A |------------------------------------------------|
D |------------------------------------------------|


Guitar 2

E |-------------------------------------|
B |-------------------------------------|
G |-------------------------------------|
D |--0--7--7--0--7--7--0--7--7--0--7--7-|
A |--0--7--7--0--7--7--0--7--7--0--7--7-|x16
D |--0--7--7--0--7--7--0--7--7--0--7--7-|


Intro - Verse 1
Pre-Chorus
Chorus
Verse 2
Chorus (repeat)
Solo
Outro


LINKIN PARK RULES!
comments
print report bad tab
16 comments total. Showing first comments.
0 reply
me12345 wrote on May 8 2007, 02:26 pm

Yeah i messed up on a couple of parts. The Guitar 3 (background) at the solo part should be like this:

E |-|----|-|
B |-|----|-|
G |-|-5~-|-|
D |-|----|-| played throughout the
A |-|----|-| remaining of the song
D |-|----|-|
[1] [1]

And the Outro guitar 1 part at (5:16) should be played those two lines, repeated 6 times.

0 reply
me12345 wrote on May 8 2007, 02:27 pm

ok THIS is the correct guitar 3 part.

E |-|----|-|
B |-|----|-|
G |-|-5~-|-|
D |-|----|-| played throughout the
A |-|----|-| remaining of the song
D |-|----|-|
[1] [1]

0 reply
me12345 wrote on May 8 2007, 10:53 pm

also the final guitar 2 part at (5:16) should go like this:

E |------------------------------------|
B |------------------------------------|
G |-7--7--7--9--9--9--11-11-11-9--9--9-|
D |-7--7--7--9--9--9--11-11-11-9--9--9-|
A |-5--5--5--7--7--7--9--9--9--7--7--7-| x16
D |------------------------------------|

I want to post or [tab]
guest
You may want to rate the tab now too:
select rating
Please do not post tabs as comments. Select "correction" instead!