Oops, an error
Loading. Please wait.

Little Things Give You Away Bass Tab

version 2
version 2

Whole song

Interactive

1,603 views 1 this week
no commentswrite comment
1 2 3 4 5
1 last vote to show rating
add to favorites
launch autoscroll
font size
0
reset
guitar tuner
Autoscroll
slow
fast
+/-
esc
set tempo
stop
Help us to improve Ultimate-Guitar.com Take our survey!
×
Author
Difficulty
Verse 2: 2:25
g|-------------------------------------------------------|
d|-------------------------------------------------------|
a|-0-0-0----------------------0-0-0----------------------|
d|--------5-5-5--0-0-0--2-2-2--------5-5-5--0-0-0--2-2-2-|

g|-------------------------------------------------------------|
d|-------------------------------------------------------------|
a|-0-0-0---------3-3-3-----------------------------------------|
d|--------5-5-5---------0-0-0--1-1-1--1-1-1--0-0-0--5-5-5------|

g|-------------------------------------------------------|
d|-------------------------------------------------------|
a|-0-0-0----------------------0-0-0----------------------|
d|--------5-5-5--0-0-0--2-2-2--------5-5-5--0-0-0--2-2-2-|

g|---------------------------------------------------------|
d|---------------------------------------------------------|
a|-0-0-0---------3-3-3-------------------------------------|
d|--------5-5-5---------0-0-0--1-1-1--1-1-1--1-1-1--1-1-1--|

g|-------------------|
d|-------------------|
a|-------------------|
d|-5-5-5--5-5-5—-5---|

Outro: 3:53
g|-----------------------------------------------------------|
d|-----------------------------------------------------------|
a|-----------------------------------------------------------|
d|-10-10-10-10-10-10-10-10-10-10-9-7-12-12-12-12-12-12-12-12-| 

g|----------------------|
d|----------------------|
a|----------------------|
d|-12-12-12-12----------| (Outro x12)
Suggest correction
Give kudos to tab author, rate the tab!
1 2 3 4 5
comments
print report bad tab
guest
You may want to rate the tab now too:
select rating
Wanna post a correction for this tab? Suggest correction