Oops, an error
Loading. Please wait.

Little Things Give You Away Bass Tab

version 3
version 3

Whole song

Interactive

1,155 views 1 this week
2 commentsread comments
1 2 3 4 5
3 more votes to show rating
add to favorites
launch autoscroll
font size
0
reset
guitar tuner
Autoscroll
slow
fast
+/-
esc
set tempo
stop
Help us to improve Ultimate-Guitar.com Take our survey!
×
Difficulty
novice
So here I made a tab for all 5-string-basses.
I took the tab-version 1 of the song and put it to standard 5-string-tuning (b-e-a-d-g), 
you don´t have to tune down to drop-d.
thanks to JL Sevenfold, who tabbed the drop-d version, which is a great tab.
And now have fun^^
[k:RaR]

The bass comes in at verse 2.

Verse 2
G|-------------------------------------------------|
D|-------------------------------------------------|
A|-0-0-0-0-0-0-3-3-3-3-2-0-------------------------|
E|-------------------------------------------------|
B|-------------------------3-3-3-3-3-3-3-3-3-3-3-3-| x3

G|-------------------------------------------------------------------|
D|-------------------------------------------------------------------|
A|-3-3-3-3-3-3-0-0-0-0-0-0-------------------------3-3-3-3-3-3-------|
E|-------------------------------------------------------------------|
B|-------------------------3-3-3-3-3-3-3-3-3-3-3-3-------------3-3-3-|

Chorus 2
G|-------------------------|
D|-------------------------|
A|-0-0-0-------------------|
E|-------3-3-3-------0-0-0-|
B|-------------3-3-3-------| x2

G|---------------------------------------------------|
D|---------------------------------------------------|
A|-0-0-0-------3-3-3---------------------------------|
E|-------3-3-3-------------1-1-1-1-1-1-1-0-0-0-3-3-3-|
B|-------------------3-3-3---------------------------|

G|-------------------------|
D|-------------------------|
A|-0-0-0-------------------|
E|-------3-3-3-------0-0-0-|
B|-------------3-3-3-------| x2

G|-----------------------------------------------------------|
D|-----------------------------------------------------------|
A|-0-0-0-------3-3-3-----------------------------------------|
E|-------3-3-3-------------1-1-1-1-1-1-1-1-1-1-1-1-3-3-3-3-3-|
B|-------------------3-3-3-----------------------------------|

Breakdown
G|-----------------------|
D|-14~---14~---16~-------|
A|-----------------------|
E|-----------------------|
B|-----------------------|

G|-------14--------------------|
D|-14~-------14--16~---17--16~-|
A|-----------------------------|
E|-----------------------------|
B|-----------------------------| x2

G|---------------------|
D|-14~-------16~-------|
A|---------------------|
E|---------------------|
B|---------------------|

Then play this until the song ends
G|-------------------------------------------------------------|
D|-------------------------------------------------------------|
A|-------------------------------------------------------------|
E|-8-8-8-8-8-8-8-8-8-8-7-5-10-10-10-10-10-10-12-12-12-10-10-10-|
B|-------------------------------------------------------------|
Suggest correction
Give kudos to tab author, rate the tab!
1 2 3 4 5
comments
print report bad tab
2 comments total.
0 reply
kRaR 31 Mar 28, 2008 07:48 AM

sh*t i made some mistakes, but i´ve uploaded an new version, i hope it will be on in the next days. it should be version 4 then. sorry for this inconvenience.
krar

0 reply
kRaR 31 Mar 31, 2008 06:50 PM

here´s the corrected part:

Then play this until the song ends
G|-------------------------------------------------------------|
D|-------------------------------------------------------------|
A|-------------------------------------------------------------|
E|-8-8-8-8-8-8-8-8-8-8-7-5-10-10-10-10-10-10-12-12-12-10-10-10-|
B|-------------------------------------------------------------|

guest
You may want to rate the tab now too:
select rating
Wanna post a correction for this tab? Suggest correction