Oops, an error
Loading. Please wait.

Little Things Give You Away Tab

version 3
version 3

Whole song

Interactive

4,199 views 1 this week
3 commentsread comments
1 2 3 4 5
accurate
x 5
add to favorites
launch autoscroll
font size
0
reset
how to read this tab
guitar tuner
Tab Pro tools
  • play this tab
  • loop segment
  • change instrument
  • show fretboard
  • metronome
×
Best way to learn
"Little Things Give You Away"
Autoscroll
slow
fast
+/-
esc
set tempo
stop
Contributor
Tuning
D A D G B E
Song - The Little Things Give You Away
Artist - Linkin Park
Album - Minutes to Midnight
Tabbed by: Erik Acosta (me12345)
Email: salivafan1@sbcglobal.net
Length of Song: 6:25
Time Signature: mostly 3/4 and occasional 4/4

I believe this tab sounds correct and accurate. Way more than
my last one. Mike's part is Guitar 1 until the solo. 
Then Brad is Guitar 2
for the remainder of the song.


|-|  Measures of rest(s)
 h   Hammer-on
 ~   Vibrato, let note(s) ring


Drop D Tuning

Intro - Verse 1

Guitar 1 (Acoustic) - 0:22


E |-------------------------------------------------------------|
B |-------------------------------------------------------------|
G |-------------------------------------------------------------|
D |--10-10-10-10-10-10-10-10-10-10-9-7-4-4-4-445-5-554-4-44-2-0-|
A |---7--7--7--7--7--7--7--7--7-7--7-7-0-0-0-000-0-000-0-00-0-0-| x4
D |---7--7--7--7--7--7--7--7--7-7--7-7-0-0-0-000-0-000-0-00-0-0-|

Pre-Chorus - 1:04


E |-------------------------------------------------------|
B |-------------------------------------------------------|
G |-------------------------------------------------------|
D |-12-12-12-12-12-12-4-4-4-4-5-5-4-4-4-445-55544-4-4-2-2-|
A |-10-10-10-10-10-10-0-0-0-0-0-0-0-0-0-000-00000-0-0-0-0-|
D |-10-10-10-10-10-10-0-0-0-0-0-0-0-0-0-000-00000-0-0-0-0-|

E |----------------------|
B |----------------------|
G |----------------------|
D |-12-12-12-12-12-12-0~-|
A |-10-10-10-10-10-10-0~-|
D |-10-10-10-10-10-10-0~-|

Chorus 1:19

E |-------------------------|
B |-------------------------|
G |-------------------------|
D |-7-7-7-5-5-5-0-0-0-2-2-2-|
A |-7-7-7-5-5-5-0-0-0-2-2-2-| x2
D |-7-7-7-5-5-5-0-0-0-2-2-2-|

E |----------------------------|
B |----------------------------|
G |----------------------------|
D |-7-7-7-5-5-5-10-10-10-0-0-0-|
A |-7-7-7-5-5-5-10-10-10-0-0-0-|
D |-7-7-7-5-5-5-10-10-10-0-0-0-|

E |----------------------|
B |----------------------|
G |----------------------|
D |-3-3-3-3-3-3-5-5-5-5~-|
A |-3-3-3-3-3-3-5-5-5-5~-|
D |-3-3-3-3-3-3-5-5-5-5~-|


Verse 2 - 1:40

Guitar 1 (Acoustic)


E |---------------------------------------------------------|
B |---------------------------------------------------------|
G |---------------------------------------------------------|
D |-10-10-10-10-10-10-10-10-10-9-7-4-4-4-445-5-554-4-44-2-0-|
A |--7--7--7--7--7--7--7--7--7-7-7-0-0-0-000-0-000-0-00-0-0-| x3
D |--7--7--7--7--7--7--7--7--7-7-7-0-0-0-000-0-000-0-00-0-0-|

Guitar 2 (Electric)

E |-------------------------------------------------|
B |-------------------------------------------------|
G |-5-5-5-5-5-5-5-5-5-5-4-2-------------------------|
D |-------------------------4-4-4-445-55544-4-4-2-0-|
A |-------------------------------------------------|
D |-------------------------------------------------|

E |-----------------------------------------------------|
B |-----------------------------------------------------|
G |-5-5-5-5-5-5-5-5-5-5-4-2-----------------------------|
D |-------------------------4-4-4-445-55544-4-44442-420-|
A |-----------------------------------------------------|
D |-----------------------------------------------------|

E |-------------------------------------------------|
B |-------------------------------------------------|
G |-5-5-5-5-5-5-5-5-5-5-4-2-------------------------|
D |-------------------------4-4-4-445-55544-4-4-2-0-|
A |-------------------------------------------------|
D |-------------------------------------------------|

Pre-Chorus - 2:10

Guitar 1 (Acoustic)

E |------------------------------------------------------|
B |------------------------------------------------------|
G |-9-9-9-9-9-9-9-9-9-9-12-12-11-11-11-111112-1212121111-|
D |-0-0-0-0-0-0-0-0-0-0--0--0--0--0--0--0-0-0--0-0-0-0-0-|
A |-0-0-0-0-0-0-0-0-0-0--0--0--0--0--0--0-0-0--0-0-0-0-0-|
D |-0-0-0-0-0-0-0-0-0-0--0--0--0--0--0--0-0-0--0-0-0-0-0-|

E |--------------------------------|
B |--------------------------------|
G |-111111119-9-9-9-9-9-9-9-9-9-9~-|
D |--0-0-0-00-0-0-0-0-0-0-0-0-0-0~-|
A |--0-0-0-00-0-0-0-0-0-0-0-0-0-0~-|
D |--0-0-0-00-0-0-0-0-0-0-0-0-0-0~-|

Guitar 2 (Electric)
E |---------------------------------------------------|
B |---------------------------------------------------|
G |---------------------------------------------------|
D |-2-2-2-2-2-2-2-2-2-2-5-5-4-4-4-445-55544-44442-2-2-|
A |-0-0-0-0-0-0-0-0-0-0-0-0-0-0-0-000-00000-00000-0-0-|
D |-0-0-0-0-0-0-0-0-0-0-0-0-0-0-0-000-00000-00000-0-0-|

E |----------------------|
B |----------------------|
G |----------------------|
D |-2-2-2-2-2-2-2-2-2-2~-|
A |-0-0-0-0-0-0-0-0-0-0~-|
D |-0-0-0-0-0-0-0-0-0-0~-|

Chorus - 2:26

Guitar 1 (Acoustic)
E |-------------------------|
B |-------------------------|
G |-------------------------|
D |-7-7-7-5-5-5-0-0-0-2-2-2-|
A |-7-7-7-5-5-5-0-0-0-2-2-2-|
D |-7-7-7-5-5-5-0-0-0-2-2-2-|

E |----------------------------|
B |----------------------------|
G |----------------------------|
D |-7-7-7-5-5-5-10-10-10-0-0-0-|
A |-7-7-7-5-5-5-10-10-10-0-0-0-|
D |-7-7-7-5-5-5-10-10-10-0-0-0-|

            E |-------------------------|
            B |-------------------------|
1st Ending  G |-------------------------|
            D |-3-3-3-3-3-3-2-2-2-5-5-5-|
            A |-3-3-3-3-3-3-2-2-2-5-5-5-| Repeat Chorus
            D |-3-3-3-3-3-3-2-2-2-5-5-5-| 

            E |----------------------------|
            B |----------------------------|
2nd Ending  G |----------------------------|
            D |-3-3-3-3-3-3-3-3-3-3-333333-|
            A |-3-3-3-3-3-3-3-3-3-3-333333-|
            D |-3-3-3-3-3-3-3-3-3-3-333333-|

            E |----------------|
            B |----------------|
            G |----------------|
            D |-5-5-5-5-5-5-5~-|
            A |-5-5-5-5-5-5-5~-|
            D |-5-5-5-5-5-5-5~-|

Guitar 2 (Electric)
E |-----------------------------|
B |-10-10-10-8-8-8--------------|
G |-----------------7-7-7-9-9-9-|
D |-----------------------------|
A |-----------------------------| x2
D |-----------------------------|

E |----------------8-8-8--------|
B |-10-10-10-8-8-8--------------|
G |----------------------7-7-7--|
D |-----------------------------|
A |-----------------------------|
D |-----------------------------|

            E |--------------------|
            B |--------------------|
1st Ending  G |-10-10-10-10-10-10--|
            D |--------------------|
            A |--------------------|
            D |--------------------|

            E |--------------------------|
            B |--------------------------|
            G |-12-12-12-12-121212121212-|
            D |--------------------------| Repeat
            A |--------------------------| Chorus
            D |--------------------------|


            E |--------------------------------------------|
            B |--------------------------------------------|
2nd Ending  G |-10-10-10-10-10-10-10-10-10-10-101010101010-|
            D |--------------------------------------------|
            A |--------------------------------------------|
            D |--------------------------------------------|

            E |--------------------|
            B |--------------------|
            G |-12-12-12-12-12-12~-|
            D |--------------------|
            A |--------------------|
            D |--------------------|

Solo - 3:12

Guitar 1

Nothing until 3:32

(Piano Background Notes)

E |------|-|------|-|------|-|------|-|------|------|------|-|
B |------|-|------|-|------|-|------|-|------|------|------|-|
G |------|-|------|-|------|-|------|-|------|------|------|-|
D |------|-|------|-|------|-|------|-|--7~--|------|------|-|
A |--7~--|-|--7~--|-|--9~--|-|--7~--|-|------|--7~--|--9~--|-|
D |------|-|------|-|------|-|------|-|------|------|------|-|
         [1]      [1]      [3]      [1)                    [1]
          ^
   # of rest measures

(3:30)

Guitar 1 (Brad) Enters (3:32)
             \/
E |-----|---------|--------|-|-----|----------|----|-|
B |-----|---------|--------|-|-----|----------|----|-|
G |-----|---------|--------|-|-----|----------|----|-|
D |-----|-----5-4-|-2~-----|-|-----|-----2-2--|-4~-|-|
A |-----|---------|--------|-|-----|----------|----|-| x2
D |-----|---------|--------|-|-----|----------|----|-|
                                                      \
(Piano Background Notes)                               } play in unison
                                                      /
E |-----|---------|--------|-|-----|----------|----|-|
B |-----|---------|--------|-|-----|----------|----|-|
G |-----|---------|--------|-|-----|----------|----|-|
D |-----|---------|--------|-|-7~--|----------|----|-|
A |-10~-|-9~------|-7~-----|-|-----|-7~-------|-9~-|-|
D |-----|---------|--------|-|-----|----------|----|-|
                           [1]                     [1]

E |-----|---------|----|-----|-|--------------|-|----|
B |-----|---------|----|-----|-|--------------|-|----|
G |-----|---------|----|-5~--|-|-5~-----------|-|----|
D |-----|---------|----|-----|-|--------------|-|-7~-|
A |-10~-|-9~------|-7~-|-----|-|--------------|-|----|
D |-----|---------|----|-----|-|--------------|-|----|
                             [1]              [1]

Guitar 1 Solo - 3:52

E |---------|---------------------------------------|       
B |---------|-------10h12~-12-10-8-10~--------------|       
G |-12-11-9-|-9~-9~--------------------11b(12)r11~--|      
D |---------|---------------------------------------|       
A |---------|---------------------------------------| Repeat
D |---------|---------------------------------------|      

E |---------------------------------------------|
B |--------------------------------15-15-15-----|
G |-12-11-9-9-7-9-11-9-11-12-11-12----------14~-|
D |---------------------------------------------|
A |---------------------------------------------|
D |---------------------------------------------|

E |----------14----14----------|
B |-15----15----------15----15-|
G |----14-------14-------14----|
D |----------------------------|
A |----------------------------|
D |----------------------------|

E |----------------------------17-17-17-------------------|
B |-17-15-17-19-17-19-20-19-20----------19~-20-19-15~-15~-|
G |-------------------------------------------------------|
D |-------------------------------------------------------|
A |-------------------------------------------------------|
D |-------------------------------------------------------|

Guitar 2

E |-------------------------|-------------------------|
B |-------------------------|-------------------------|
G |-------------------------|-------------------------|
D |-5-5-5-5-5-5-5-5-5-5-5-5-|-7-7-7-7-7-7-7-7-7-7-7-7-|
A |-7-7-7-7-7-7-7-7-7-7-7-7-|-9-9-9-9-9-9-9-9-9-9-9-9-| x4
D |-5-5-5-5-5-5-5-5-5-5-5-5-|-7-7-7-7-7-7-7-7-7-7-7-7-|


Outro - 4:34

Guitar 1

E |-------------------|
B |-15----15-17----17-|
G |----14-------14----|
D |-------------------|
A |-------------------| x7
D |-------------------|

E |--------------------------|
B |-15----15-17-171717171717-|
G |----14--------------------|
D |--------------------------|
A |--------------------------|
D |--------------------------|

(4:55)

Guitar 1

E |-------------------|
B |-15----15-17----17-|
G |----14-------14----|
D |-------------------|
A |-------------------| x3
D |-------------------|
                                }Repeat 6 times
E |--------------------------|
B |-15----15-17-171717171717-|
G |----14--------------------|
D |--------------------------|
A |--------------------------|
D |--------------------------|

Guitar 2

E |-------------------------|-------------------------|
B |-------------------------|-------------------------|
G |-------------------------|-------------------------|
D |-5-5-5-5-5-5-5-5-5-5-5-5-|-7-7-7-7-7-7-7-7-7-7-7-7-|
A |-7-7-7-7-7-7-7-7-7-7-7-7-|-9-9-9-9-9-9-9-9-9-9-9-9-| x8
D |-5-5-5-5-5-5-5-5-5-5-5-5-|-7-7-7-7-7-7-7-7-7-7-7-7-|


Intro - Verse 1
Pre-Chorus
Chorus
Verse 2
Chorus (repeat)
Solo
Outro
comments
print report bad tab
3 comments total.
-2 reply
catandminot wrote on March 20 2008, 06:15 pm

Really good tab. Couldn't find a single error!

0 reply
LPChesterDelson wrote on July 28 2008, 03:55 pm

the solo dosnt sound right and i saw them live and up front and brad dosnt play just one string

+1 reply
Menas wrote on December 23 2008, 03:50 pm

No, it's so f#%kin' right!
Maybe you should buy a new pair of glasses >.>
5 stars.

I want to post or [tab]
guest
You may want to rate the tab now too:
select rating
Please do not post tabs as comments. Select "correction" instead!