Oops, an error
Loading. Please wait.

Little Things Give You Away Tab

version 4
version 4

Whole song

Interactive

12,614 views 3 this week
2 commentsread comments
1 2 3 4 5
excellent!
x 4
add to favorites
launch autoscroll
font size
0
reset
how to read this tab
guitar tuner
Autoscroll
slow
fast
+/-
esc
set tempo
stop
Help us to improve Ultimate-Guitar.com Take our survey!
×
Author
Difficulty
Tuning
intermediate
D A D G B E
The Little Things Give You Away - Linkin Park

Guitar 1 - D A D G B E (Acoustic guitar)
Guitar 2 - D A D G B E (Slightly overdriven)
Guitar 3 - D A D G B E (Slightly overdriven)
Guitar 4 - D A D G B E (Semi-distorted w/reverb and delay)
Guitar 5 - D A D G B E (Heavy distortion)

The last song on Minutes to Midnight has to be Linkin Park's magnum opus when it comes
the use of multiple guitar tracks. There's acoustic guitar, 2 rhythm guitars, a
tracked solo, and a 3rd rhythm guitar that comes in near the end (There are a few other
with 5 guitar tracks, but this song has the most variation between parts). The overall tone
the guitars on this track suggests that they were all recorded on a Fender Stratocaster
possibly a Jaguar as Brad had one of those in the studio as well), so you're going to
a light distortion/overdrive for guitars 2, 3, and 4, and to get the right tone, try
this song on a guitar with single coil pickups. This song is also played much
live: Mike plays the acoustic part at the beginning, then plays Guitar 3's part for the
pre-chorus and chorus (on the acoustic guitar instead of an electric), then switches to
playing Guitar 5 (on an electric guitar) for the rest of the song. Brad plays the Guitar
and 4 parts (2 for the first half of the song, 4 for the second). Mike's rhythm parts
the are quite dumbed-down from how they were played on the album version. This tab is
the album version, I'll make a live version tab sooner or later seeing as it's
different from the album version. Also, I tried to notate the solo the way Brad plays it 
and he plays the entire first part of the solo on the G string. I
find it easier to play it on the G and B strings and not having to slide around so much,
this is the way he plays it, play it as you see fit.

Intro - Guitar 5
|----|
|----|
|----|
|-0~-|
|-0~-|
|-0~-|
(Volume swell and feedback on an open D5 chord, then stop when the acoustic guitar starts.)

First Verse - Guitar 1
|------------------------------------------------------------------------------|
|------------------------------------------------------------------------------|
|------------------------------------------------------------------------------|
|-10-10-10-10-10-10-10-10-10-10-9--7--4--4--4--4-5-5--5-5-5-4--4--4-4-4\2-2--2-|
|-7--7--7--7--7--7--7--7--7--7--7--7--0--0--0--0-0-0--0-0-0-0--0--0-0-0---0--0-|
|-7--7--7--7--7--7--7--7--7--7--7--7--0--0--0--0-0-0--0-0-0-0--0--0-0-0---0--0-|

|------------------------------------------------------------------------------|
|------------------------------------------------------------------------------|
|------------------------------------------------------------------------------|
|-10-10-10-10-10-10-10-10-10-10-9--7--4--4--4--4-5-5--5-5-5-4--4--4-4-4\2-2--2-|
|-7--7--7--7--7--7--7--7--7--7--7--7--0--0--0--0-0-0--0-0-0-0--0--0-0-0---0--0-|
|-7--7--7--7--7--7--7--7--7--7--7--7--0--0--0--0-0-0--0-0-0-0--0--0-0-0---0--0-|

|------------------------------------------------------------------------------|
|------------------------------------------------------------------------------|
|------------------------------------------------------------------------------|
|-10-10-10-10-10-10-10-10-10-10-9--7--4--4--4--4-5-5--5-5-5-4--4--4-4-4\2-2--2-|
|-7--7--7--7--7--7--7--7--7--7--7--7--0--0--0--0-0-0--0-0-0-0--0--0-0-0---0--0-|
|-7--7--7--7--7--7--7--7--7--7--7--7--0--0--0--0-0-0--0-0-0-0--0--0-0-0---0--0-|

|------------------------------------------------------------------------------|
|------------------------------------------------------------------------------|
|------------------------------------------------------------------------------|
|-10-10-10-10-10-10-10-10-10-10-9--7--4--4--4--4-5-5--5-5-5-4--4--4-4-4\2-2--2-|
|-7--7--7--7--7--7--7--7--7--7--7--7--0--0--0--0-0-0--0-0-0-0--0--0-0-0---0--0-|
|-7--7--7--7--7--7--7--7--7--7--7--7--0--0--0--0-0-0--0-0-0-0--0--0-0-0---0--0-|

Pre-Chorus - Guitar 1
|------------------------------------------------------------------------|
|------------------------------------------------------------------------|
|------------------------------------------------------------------------|
|-12-12-12-12-12-12-9-9-9-9-9-9-4--4--4--4-5-5--5-5-5-4--4--4-4-4\2-2--2-|
|-10-10-10-10-10-10-7-7-7-7-7-7-0--0--0--0-0-0--0-0-0-0--0--0-0-0---0--0-|
|-10-10-10-10-10-10-7-7-7-7-7-7-0--0--0--0-0-0--0-0-0-0--0--0-0-0---0--0-|

|----------------------|
|----------------------|
|----------------------|
|-12-12-12-12-12-12-0~-|
|-10-10-10-10-10-10-0~-|
|-10-10-10-10-10-10-0~-|

First Chorus - Guitar 1
|-------------------------------------------------|
|-------------------------------------------------|
|-------------------------------------------------|
|-7-7-7-5-5-5-0-0-0-2-2-2-7-7-7-5-5-5-0-0-0-2-2-2-|
|-7-7-7-5-5-5-0-0-0-2-2-2-7-7-7-5-5-5-0-0-0-2-2-2-|
|-7-7-7-5-5-5-0-0-0-2-2-2-7-7-7-5-5-5-0-0-0-2-2-2-|

|-------------------------------------------------|
|-------------------------------------------------|
|-------------------------------------------------|
|-7-7-7-5-5-5-10-10-10-0-0-0-3-3-3-3-3-3-5-5-5-5~-|
|-7-7-7-5-5-5-10-10-10-0-0-0-3-3-3-3-3-3-5-5-5-5~-|
|-7-7-7-5-5-5-10-10-10-0-0-0-3-3-3-3-3-3-5-5-5-5~-|

2nd Verse - Guitars 1 and 2
|------------------------------------------------------------------------------|
|------------------------------------------------------------------------------|
|------------------------------------------------------------------------------|
|-10-10-10-10-10-10-10-10-10-10-9--7--4--4--4--4-5-5--5-5-5-4--4--4-4-4\2-2--2-|
|-7--7--7--7--7--7--7--7--7--7--7--7--0--0--0--0-0-0--0-0-0-0--0--0-0-0---0--0-|
|-7--7--7--7--7--7--7--7--7--7--7--7--0--0--0--0-0-0--0-0-0-0--0--0-0-0---0--0-|

|------------------------------------------------------------------------------|
|------------------------------------------------------------------------------|
|------------------------------------------------------------------------------|
|-10-10-10-10-10-10-10-10-10-10-9--7--4--4--4--4-5-5--5-5-5-4--4--4-4-4\2-2--2-|
|-7--7--7--7--7--7--7--7--7--7--7--7--0--0--0--0-0-0--0-0-0-0--0--0-0-0---0--0-|
|-7--7--7--7--7--7--7--7--7--7--7--7--0--0--0--0-0-0--0-0-0-0--0--0-0-0---0--0-|

|------------------------------------------------------------------------------|
|------------------------------------------------------------------------------|
|------------------------------------------------------------------------------|
|-10-10-10-10-10-10-10-10-10-10-9--7--4--4--4--4-5-5--5-5-5-4--4--4-4-4\2-2--2-|
|-7--7--7--7--7--7--7--7--7--7--7--7--0--0--0--0-0-0--0-0-0-0--0--0-0-0---0--0-|
|-7--7--7--7--7--7--7--7--7--7--7--7--0--0--0--0-0-0--0-0-0-0--0--0-0-0---0--0-|

Pre-Chorus
|---------------------------------------------------------------------------------|
|---------------------------------------------------------------------------------|
|---------------------------------------------------------------------------------|
|-12-12-12-12-12-12-9-9-9-9-9--9--4--4--4--4--5--5--5--5--5--4--4--4--4---4\2-2-2-|
|-10-10-10-10-10-10-7-7-7-7-7--7--0--0--0--0--0--0--0--0--0--0--0--0--0---0---0-0-|
|-10-10-10-10-10-10-7-7-7-7-7--7--0--0--0--0--0--0--0--0--0--0--0--0--0---0---0-0-|
|Guitars 1 and 2
|
|---------------------------------------------------------------------------------|
|---------------------------------------------------------------------------------|
|-9--9--9--9--9--9--9-9-9-9-12-12-11-11-11-11/12-12-12-12-12\11-11-11-11-11\9-9-9-|
|-x--x--x--x--x--x--x-x-x-x-x--x--x--x--x--x--x--x--x--x--x--x--x--x--x--x--x-x-x-|
|-7--7--7--7--7--7--7-7-7-7-10-10-9--9--9--9-/10-10-10-10-10\9--9--9--9--9-\7-7-7-|
|---------------------------------------------------------------------------------|
|Guitar 3

|---------------------------|
|---------------------------|
|---------------------------|
|-12-12-12-12-12-12-0-0-0-0-|
|-10-10-10-10-10-10-0-0-0-0-|
|-10-10-10-10-10-10-0-0-0-0-|
|Guitars 1 and 2
|
|---------------------------|
|---------------------------|
|-9--9--9--9--9--9--9-9-9-9-|
|-x--x--x--x--x--x--x-x-x-x-|
|-7--7--7--7--7--7--7-7-7-7-|
|---------------------------|
|Guitar 3

2nd Chorus
|-------------------------------------------------------------|
|-------------------------------------------------------------|
|-------------------------------------------------------------|
|-7--7--7--5--5--5--0-0-0-2-2-2-7--7--7--5--5--5--0-0-0-2-2-2-|
|-7--7--7--5--5--5--0-0-0-2-2-2-7--7--7--5--5--5--0-0-0-2-2-2-|
|-7--7--7--5--5--5--0-0-0-2-2-2-7--7--7--5--5--5--0-0-0-2-2-2-|
|Guitars 1 and 2
|
|-------------------------------------------------------------|
|-------------------------------------------------------------|
|-14-14-14-12-12-12-7-7-7-9-9-9-14-14-14-12-12-12-7-7-7-9-9-9-|
|-x--x--x--x--x--x--x-x-x-x-x-x-x--x--x--x--x--x--x-x-x-x-x-x-|
|-12-12-12-10-10-10-5-5-5-7-7-7-12-12-12-10-10-10-5-5-5-7-7-7-|
|-------------------------------------------------------------|
|Guitar 3

|-------------------------------------------------------------------|
|-------------------------------------------------------------------|
|-------------------------------------------------------------------|
|-7--7--7--5--5--5--10-10-10-0-0-0-3--3--3--3--3--3--2-2-2-5--5--5--|
|-7--7--7--5--5--5--10-10-10-0-0-0-3--3--3--3--3--3--2-2-2-5--5--5--|
|-7--7--7--5--5--5--10-10-10-0-0-0-3--3--3--3--3--3--2-2-2-5--5--5--|
|Guitars 1 and 2
|
|-------------------------------------------------------------------|
|-------------------------------------------------------------------|
|-14-14-14-12-12-12-17-17-17-7-7-7-10-10-10-10-10-10-9-9-9-12-12-12-|
|-x--x--x--x--x--x--x--x--x--x-x-x-x--x--x--x--x--x--x-x-x-x--x--x--|
|-12-12-12-10-10-10-15-15-15-5-5-5-8--8--8--8--8--8--7-7-7-10-10-10-|
|-------------------------------------------------------------------|
|Guitar 3

|-------------------------------------------------------------|
|-------------------------------------------------------------|
|-------------------------------------------------------------|
|-7--7--7--5--5--5--0-0-0-2-2-2-7--7--7--5--5--5--0-0-0-2-2-2-|
|-7--7--7--5--5--5--0-0-0-2-2-2-7--7--7--5--5--5--0-0-0-2-2-2-|
|-7--7--7--5--5--5--0-0-0-2-2-2-7--7--7--5--5--5--0-0-0-2-2-2-|
|Guitars 1 and 2
|
|-------------------------------------------------------------|
|-------------------------------------------------------------|
|-14-14-14-12-12-12-7-7-7-9-9-9-14-14-14-12-12-12-7-7-7-9-9-9-|
|-x--x--x--x--x--x--x-x-x-x-x-x-x--x--x--x--x--x--x-x-x-x-x-x-|
|-12-12-12-10-10-10-5-5-5-7-7-7-12-12-12-10-10-10-5-5-5-7-7-7-|
|-------------------------------------------------------------|
|Guitar 3

|--------------------------------------------------------------------------------------------|
|--------------------------------------------------------------------------------------------|
|--------------------------------------------------------------------------------------------|
|-7--7--7--5--5--5--10-10-10-0-0-0-3--3--3--3--3--3--3--3--3--3--3--3--5--5--5--5--5--5--5~--|
|-7--7--7--5--5--5--10-10-10-0-0-0-3--3--3--3--3--3--3--3--3--3--3--3--5--5--5--5--5--5--5~--|
|-7--7--7--5--5--5--10-10-10-0-0-0-3--3--3--3--3--3--3--3--3--3--3--3--5--5--5--5--5--5--5~--|
|Guitars 1 and 2
|
|--------------------------------------------------------------------------------------------|
|--------------------------------------------------------------------------------------------|
|-14-14-14-12-12-12-17-17-17-7-7-7-10-10-10-10-10-10-10-10-10-10-10-10-12-12-12-12-12-12-12~-|
|-x--x--x--x--x--x--x--x--x--x-x-x-x--x--x--x--x--x--x--x--x--x--x--x--x--x--x--x--x--x--x---|
|-12-12-12-10-10-10-15-15-15-5-5-5-8--8--8--8--8--8--8--8--8--8--8--8--10-10-10-10-10-10-10~-|
|--------------------------------------------------------------------------------------------|
|Guitar 3

Breakdown - There's a guitar playing some random and sparse chords in the background
it's really buried in the mix and sounds like it's just supposed to be dissonant anyway, my
is to just play all 6 strings open at once, it'll sound about right.

Breakdown - Guitar 4 (Start with the volume knob at about half and volume swell throughout)
|--------------------------------------------------|
|--------------------------------------------------|
|--------------------------------------------------|
|-5-4-2~-----2-2-2/4~-----5-4-2~-----2-2-2/4~---4~-|
|--------------------------------------------------|
|--------------------------------------------------|

Guitar Solo
|---------------------------------------------------------------------------------|
|---------------------------------------------------------------------------------|
|---------------------------------------------------------------------------------|
|---------12-12-12-14-12-12-12-12-12-14-12-12-12-12-12-14-12-12-12-12-12-14-12-12-|
|---------10-10-10-10-10-10-10-10-10-10-10-10-12-12-12-12-12-12-12-12-12-12-12-12-|
|---------10-10-10-10-10-10-10-10-10-10-10-10-12-12-12-12-12-12-12-12-12-12-12-12-|
|Guitars 2 and 3
|
|---------------------------------------------------------------------------------|
|---------------------------------------------------------------------------------|
|-12-11-9-9~-------9~-------16~------16-14-12-14~------11~~~b12r11~------12-11-9--|
|---------------------------------------------------------------------------------|
|---------------------------------------------------------------------------------|
|---------------------------------------------------------------------------------|
|Guitar 4

|-------------------------------------------------------------------------|
|-------------------------------------------------------------------------|
|-------------------------------------------------------------------------|
|-12-12-12-14-12-12-12-12-12-14-12-12-12-12-12-14-12-12-12-12-12-14-12-12-|
|-10-10-10-10-10-10-10-10-10-10-10-10-12-12-12-12-12-12-12-12-12-12-12-12-|
|-10-10-10-10-10-10-10-10-10-10-10-10-12-12-12-12-12-12-12-12-12-12-12-12-|
|Guitars 2 and 3
|
|-------------------------------------------------------------------------|
|-------------------------------------------------------------------------|
|-9~-------9~-------16~------16-14-12-14~------11~~~b12r11~------12-11-9--|
|-------------------------------------------------------------------------|
|-------------------------------------------------------------------------|
|-------------------------------------------------------------------------|
|Guitar 4

|-------------------------------------------------------------------------|
|-------------------------------------------------------------------------|
|-------------------------------------------------------------------------|
|-12-12-12-14-12-12-12-12-12-14-12-12-12-12-12-14-12-12-12-12-12-14-12-12-|
|-10-10-10-10-10-10-10-10-10-10-10-10-12-12-12-12-12-12-12-12-12-12-12-12-|
|-10-10-10-10-10-10-10-10-10-10-10-10-12-12-12-12-12-12-12-12-12-12-12-12-|
|Guitars 2 and 3
|
|-------------------------------------------------------14----14----------|
|----------------------------------------------15----15----15----15----15-|
|-9--7--9--11-9--11-12-11-12-19-19-19-14~---------14----------------14----|
|-------------------------------------------------------------------------|
|-------------------------------------------------------------------------|
|-------------------------------------------------------------------------|
|Guitar 4

|-------------------------------------------------------------------------|
|-------------------------------------------------------------------------|
|-------------------------------------------------------------------------|
|-12-12-12-14-12-12-12-12-12-14-12-12-12-12-12-14-12-12-12-12-12-14-12-12-|
|-10-10-10-10-10-10-10-10-10-10-10-10-12-12-12-12-12-12-12-12-12-12-12-12-|
|-10-10-10-10-10-10-10-10-10-10-10-10-12-12-12-12-12-12-12-12-12-12-12-12-|
|Guitars 2 and 3
|
|----------14----14-15-14-15-17-17-17-14~---------15-14-------------------|
|-17-15-17----17----------------------------------------15~------15~------|
|-------------------------------------------------------------------------|
|-------------------------------------------------------------------------|
|-------------------------------------------------------------------------|
|-------------------------------------------------------------------------|
|Guitar 4

Outro
|-------------------------------------------------------------------------|
|-------------------------------------------------------------------------|
|-------------------------------------------------------------------------|
|-12-12-12-14-12-12-12-12-12-14-12-12-12-12-12-14-12-12-12-12-12-14-12-12-|
|-10-10-10-10-10-10-10-10-10-10-10-10-12-12-12-12-12-12-12-12-12-12-12-12-|
|-10-10-10-10-10-10-10-10-10-10-10-10-12-12-12-12-12-12-12-12-12-12-12-12-|
|Guitars 2 and 3
|
|-------------------------------------------------------------------------|
|-15----15-17----17-15----15-17----17-15----15-17----17-15----15-17----17-|
|----14-------14-------14-------14-------14-------14-------14-------14----|
|-------------------------------------------------------------------------|
|-------------------------------------------------------------------------|
|-------------------------------------------------------------------------|
|Guitar 4
|
|-------------------------------------------------------------------------|
|-------------------------------------------------------------------------|
|-------------------------------------------------------------------------|
|-5--5--5--5--5--5--5--5--5--5--5--5--7--7--7--7--7--7--7--7--7--7--7--7--|
|-3--3--3--3--3--3--3--3--3--3--3--3--5--5--5--5--5--5--5--5--5--5--5--5--|
|-------------------------------------------------------------------------|
|Guitar 5

|-------------------------------------------------------------------------|
|-------------------------------------------------------------------------|
|-------------------------------------------------------------------------|
|-12-12-12-14-12-12-12-12-12-14-12-12-12-12-12-14-12-12-12-12-12-14-12-12-|
|-10-10-10-10-10-10-10-10-10-10-10-10-12-12-12-12-12-12-12-12-12-12-12-12-|
|-10-10-10-10-10-10-10-10-10-10-10-10-12-12-12-12-12-12-12-12-12-12-12-12-|
|Guitars 2 and 3
|
|-------------------------------------------------------------------------|
|-15----15-17----17-15----15-17----17-15----15-17----17-15----15-17----17-|
|----14-------14-------14-------14-------14-------14-------14-------14----|
|-------------------------------------------------------------------------|
|-------------------------------------------------------------------------|
|-------------------------------------------------------------------------|
|Guitar 4
|
|-------------------------------------------------------------------------|
|-------------------------------------------------------------------------|
|-------------------------------------------------------------------------|
|-5--5--5--5--5--5--5--5--5--5--5--5--7--7--7--7--7--7--7--7--7--7--7--7--|
|-3--3--3--3--3--3--3--3--3--3--3--3--5--5--5--5--5--5--5--5--5--5--5--5--|
|-------------------------------------------------------------------------|
|Guitar 5

|-------------------------------------------------------------------------|
|-------------------------------------------------------------------------|
|-------------------------------------------------------------------------|
|-12-12-12-14-12-12-12-12-12-14-12-12-12-12-12-14-12-12-12-12-12-14-12-12-|
|-10-10-10-10-10-10-10-10-10-10-10-10-12-12-12-12-12-12-12-12-12-12-12-12-|
|-10-10-10-10-10-10-10-10-10-10-10-10-12-12-12-12-12-12-12-12-12-12-12-12-|
|Guitars 2 and 3
|
|-------------------------------------------------------------------------|
|-15----15-17----17-15----15-17----17-15----15-17----17-15----15-17----17-|
|----14-------14-------14-------14-------14-------14-------14-------14----|
|-------------------------------------------------------------------------|
|-------------------------------------------------------------------------|
|-------------------------------------------------------------------------|
|Guitar 4
|
|-------------------------------------------------------------------------|
|-------------------------------------------------------------------------|
|-------------------------------------------------------------------------|
|-5--5--5--5--5--5--5--5--5--5--5--5--7--7--7--7--7--7--7--7--7--7--7--7--|
|-3--3--3--3--3--3--3--3--3--3--3--3--5--5--5--5--5--5--5--5--5--5--5--5--|
|-------------------------------------------------------------------------|
|Guitar 5

|-------------------------------------------------------------------------|
|-------------------------------------------------------------------------|
|-------------------------------------------------------------------------|
|-12-12-12-14-12-12-12-12-12-14-12-12-12-12-12-14-12-12-12-12-12-14-12-12-|
|-10-10-10-10-10-10-10-10-10-10-10-10-12-12-12-12-12-12-12-12-12-12-12-12-|
|-10-10-10-10-10-10-10-10-10-10-10-10-12-12-12-12-12-12-12-12-12-12-12-12-|
|Guitars 2 and 3
|
|-------------------------------------------------------------------------|
|-15----15-17----17-15----15-17----17-15----15-17----17-15----15-17----17-|
|----14-------14-------14-------14-------14-------14-------14-------14----|
|-------------------------------------------------------------------------|
|-------------------------------------------------------------------------|
|-------------------------------------------------------------------------|
|Guitar 4
|
|-------------------------------------------------------------------------|
|-------------------------------------------------------------------------|
|-------------------------------------------------------------------------|
|-5--5--5--5--5--5--5--5--5--5--5--5--7--7--7--7--7--7--7--7--7--7--7--7--|
|-3--3--3--3--3--3--3--3--3--3--3--3--5--5--5--5--5--5--5--5--5--5--5--5--|
|-------------------------------------------------------------------------|
|Guitar 5

|-------------------------------------------------------------------------|
|-------------------------------------------------------------------------|
|-------------------------------------------------------------------------|
|-12-12-12-14-12-12-12-12-12-14-12-12-12-12-12-14-12-12-12-12-12-14-12-12-|
|-10-10-10-10-10-10-10-10-10-10-10-10-12-12-12-12-12-12-12-12-12-12-12-12-|
|-10-10-10-10-10-10-10-10-10-10-10-10-12-12-12-12-12-12-12-12-12-12-12-12-|
|Guitars 2 and 3
|
|-------------------------------------------------------------------------|
|-15----15-17----17-15----15-17----17-15----15-17----17-15----15-17----17-|
|----14-------14-------14-------14-------14-------14-------14-------14----|
|-------------------------------------------------------------------------|
|-------------------------------------------------------------------------|
|-------------------------------------------------------------------------|
|Guitar 4
|
|-------------------------------------------------------------------------|
|-------------------------------------------------------------------------|
|-------------------------------------------------------------------------|
|-5--5--5--5--5--5--5--5--5--5--5--5--7--7--7--7--7--7--7--7--7--7--7--7--|
|-3--3--3--3--3--3--3--3--3--3--3--3--5--5--5--5--5--5--5--5--5--5--5--5--|
|-------------------------------------------------------------------------|
|Guitar 5

|-------------------------------------------------------------------------|
|-------------------------------------------------------------------------|
|-------------------------------------------------------------------------|
|-12-12-12-14-12-12-12-12-12-14-12-12-12-12-12-14-12-12-12-12-12-14-12-12-|
|-10-10-10-10-10-10-10-10-10-10-10-10-12-12-12-12-12-12-12-12-12-12-12-12-|
|-10-10-10-10-10-10-10-10-10-10-10-10-12-12-12-12-12-12-12-12-12-12-12-12-|
|Guitars 2 and 3
|
|-------------------------------------------------------------------------|
|-15----15-17----17-15----15-17----17-15----15-17----17-15----15-17----17-|
|----14-------14-------14-------14-------14-------14-------14-------14----|
|-------------------------------------------------------------------------|
|-------------------------------------------------------------------------|
|-------------------------------------------------------------------------|
|Guitar 4
|
|-------------------------------------------------------------------------|
|-------------------------------------------------------------------------|
|-------------------------------------------------------------------------|
|-5--5--5--5--5--5--5--5--5--5--5--5--7--7--7--7--7--7--7--7--7--7--7--7--|
|-3--3--3--3--3--3--3--3--3--3--3--3--5--5--5--5--5--5--5--5--5--5--5--5--|
|-------------------------------------------------------------------------|
|Guitar 5

|-------------------------------------------------------------------------|
|-------------------------------------------------------------------------|
|-------------------------------------------------------------------------|
|-12-12-12-14-12-12-12-12-12-14-12-12-12-12-12-14-12-12-12-12-12-14-12-12-|
|-10-10-10-10-10-10-10-10-10-10-10-10-12-12-12-12-12-12-12-12-12-12-12-12-|
|-10-10-10-10-10-10-10-10-10-10-10-10-12-12-12-12-12-12-12-12-12-12-12-12-|
|Guitars 2 and 3
|
|-------------------------------------------------------------------------|
|-15----15-17----17-15----15-17----17-15----15-17----17-15----15-17----17-|
|----14-------14-------14-------14-------14-------14-------14-------14----|
|-------------------------------------------------------------------------|
|-------------------------------------------------------------------------|
|-------------------------------------------------------------------------|
|Guitar 4
|
|-------------------------------------------------------------------------|
|-------------------------------------------------------------------------|
|-------------------------------------------------------------------------|
|-5--5--5--5--5--5--5--5--5--5--5--5--7--7--7--7--7--7--7--7--7--7--7--7--|
|-3--3--3--3--3--3--3--3--3--3--3--3--5--5--5--5--5--5--5--5--5--5--5--5--|
|-------------------------------------------------------------------------|
|Guitar 5

|-------------------------------------------------------------------------|
|-------------------------------------------------------------------------|
|-------------------------------------------------------------------------|
|-12-12-12-14-12-12-12-12-12-14-12-12-12-12-12-14-12-12-12-12-12-14-12-12-|
|-10-10-10-10-10-10-10-10-10-10-10-10-12-12-12-12-12-12-12-12-12-12-12-12-|
|-10-10-10-10-10-10-10-10-10-10-10-10-12-12-12-12-12-12-12-12-12-12-12-12-|
|Guitars 2 and 3
|
|-------------------------------------------------------------------------|
|-15----15-17----17-15----15-17----17-15----15-17----17-15----15-17----17-|
|----14-------14-------14-------14-------14-------14-------14-------14----|
|-------------------------------------------------------------------------|
|-------------------------------------------------------------------------|
|-------------------------------------------------------------------------|
|Guitar 4
|
|-------------------------------------------------------------------------|
|-------------------------------------------------------------------------|
|-------------------------------------------------------------------------|
|-5--5--5--5--5--5--5--5--5--5--5--5--7--7--7--7--7--7--7--7--7--7--7--7--|
|-3--3--3--3--3--3--3--3--3--3--3--3--5--5--5--5--5--5--5--5--5--5--5--5--|
|-------------------------------------------------------------------------|
|Guitar 5
Suggest correction
What's this?
You can suggest a correction to this tab. Community and Mods will review your correction and vote to approve or reject it.
comments
print report bad tab
2 comments total.
0 reply
Caleb Weyant 171 wrote on April 10 2009, 09:45 am

Dude this tab is good but can you edit it so it fits on a page i moved the tabs out so far on my screen in microsoft word it still wont fit

0 reply
kelektrik 79 wrote on September 12 2009, 12:22 pm

astatslpvids. lpassociation.com

guest
You may want to rate the tab now too:
select rating
Please do not post tabs as comments. Select "correction" instead!