Oops, an error
Loading. Please wait.

Live In Texas Tab

6,050 views 6 this week
8 commentsread comments
1 2 3 4 5
worth learning
x 8
add to favorites
launch autoscroll
font size
0
reset
how to read this tab
guitar tuner
Autoscroll
slow
fast
+/-
esc
set tempo
stop
Help us to improve Ultimate-Guitar.com Take our survey!
×
Linkin Park
Live In Texas

It took me forever to figure out these tabs so i hope u like them.

Somewhere I Belong - Linkin Park

Intro
e----------------------------------  ------|
b----------------------------------  ------|
g--4--4-----5--5-----7-7-----4--4--  --4-4-|
d--4--4-----6--6-----6-6-----0--0--  --2-0-|
a----------------------------------  ------|
e----------------------------------  ------|

Part of intro/Verses
e-----2-----5-2-----2-----5-2--| R |-2~~~~~~~-|
b--0------0-------0-----0------| E |-0~~~~~~~-|
g------------------------------| P |----------|
d------------------------------| E |----------|
a------------------------------| A |----------|
e------------------------------| T |----------|

Chorus
e-------------------------------------------------------------|
b-------------------------------------------------------------|
g----------------7-7-7-7-7-7-7--------------------------------|
d-9-9-9-9-9-9-9--7-7-7-7-7-7-7--5-5-5-5-5-5-5--7-7-7-7-7-7-7--|
a-9-9-9-9-9-9-9--5-5-5-5-5-5-5--5-5-5-5-5-5-5--7-7-7-7-7-7-7--|
e-7-7-7-7-7-7-7-----------------3-3-3-3-3-3-3--5-5-5-5-5-5-5--|

(Cont.)
e------------------------------------------------------------|
b------------------------------------------------------------|
g----------------7-7-7-7-7-7-7-------------------------------|
d-9-9-9-9-9-9-9--7-7-7-7-7-7-7--7-7-7-7-7-7-7--5-5-5-5-5-5-5-|
a-9-9-9-9-9-9-9--5-5-5-5-5-5-5--7-7-7-7-7-7-7--5-5-5-5-5-5-5-|
e-7-7-7-7-7-7-7-----------------5-5-5-5-5-5-5--3-3-3-3-3-3-3-|

Bridge
e-------------------------------------------------------|
b-------------------------------------------------------|
g--------11-11---------11-11---------11-11--------------|
d--4-4-----------4-4-----------4-4-----------4-4--0h2---|
a--4-4---9--9----4-4---9--9----4-4---9--9----4-4------4-|
e--2-2-----------2-2-----------2-2-----------2-2--------|

2sd guitar
e------------------------------------------------------|
b------------------------------------------------------|
g------------------------------------------------------|
d--------0h2-------------------------------------------|
a------------4---4-4--------4p2-0-2--------------------|
e--2-2-----------------------------------2-2-2-2-2-2-2-|

Between verses and Chorus
e--------------------------|
b--------------------------|
g--------------------------|
d--------------------------|
a--------------------------|
e--7-7-7-7-7-7-7-7-7-7-7-7-|

Somewhere I Belooooooonnnnng
e---------------------------------------------------|
b---------------------------------------------------|
g---------------------------------------------------|
d-7--9-9-9-9-9-9-9-9-9-9-9---------9-9-9-9-9--10-10-|
a-7--9-9-9-9-9-9-9-9-9-9-9---------9-9-9-9-9--10-10-|
e-5--7-7-7-7-7-7-7-7-7-7-7---------7-7-7-7-7--8--8--|

Lying From You - Linkin Park

   Intro
E|-------|-----------------------|   |------------------------|
B|-------|-----------------------|   |------------------------|
G|-------|-----------------------|3X |------------------------|
D|-------|-----------------------|   |------------------------|
A|-2222--|--02-1-0-3-2-1-0-0-6---|   |--02-1-0-3-2-1----------|
D|-2222--|--02-1-0-3-2-1-0-0-6---|   |--02-1-0-3-2-1----------|
   |PM|
Verse                       on last last part of Verse
|---------------------------|--------------------------------|
|---------------------------|--------------------------------|
|----------7-7--------------|--7-7-7777----------------------|
|--2-2-----x-x----00-00-----|--x-x-xxxx--0-0-0000------------|
|--2-2-----5-5----00-00-----|--5-5-5555--0-0-0000------------|
Chorus
|------------------------------------------------------------------|
|------------------------------------------------------------------|
|-----11-11--11-11-11-7-7-7-7-9-9-9-9------------------------------|
|------x--x--x--x--x--x-x-x-x-x-x-x-x--7-7-7777-7------------------|
|-2-2--9--9--9--9--9--5-5-5-5-7-7-7-7--x-x-xxxx-x--0-0-0000-4-0----|
|-2-2----------------------------------5-5-5555-5--0-0-0000-4-0----|

Papercut - Linkin Park
M - palm mute

Intro
e|10--12--13--12----x4------------------------------------------------------|
B|--10--10--10--10----------------------------------------------------------|
G|--------------------------------------------------------------------------|
D|--------------------------------------------------------------------------|
A|--------------------------------------------------------------------------|
E|--------------------------------------------------------------------------|
Chorus                              *Verse...........................

e|--------------------------------------------------------------------------|
B|--------------------------------------------------------------------------|
G|--------10-9-5--5-5-------------------------------------------------------|
D|--0-0-0--x-x-x--x-x--2-2-2-2------0m-0m-0m--2-2-2-------------------------|
A|--0-0-0--8-7-3--3-3--2-2-2-2--x4--0m-0m-0m--2-2-2----3--3-3-3-2-2---------|
E|--0-0-0--------------2-2-2-2------0m-0m-0m--2-2-2----1--1-1-1-0-0---------|
                      (^ on last time throught dont play the 4 bar chords)

Verse..................................................................
e|--------------------------------------------------------------------------|
B|--------------------------------------------------------------------------|
G|--------------------------------------------------------------------------|
D|-2-2-2----------------------2-2-2-----------------2-2-2-------------------|
A|-2-2-2----3--3-3-3-2-2--x3--2-2-2--5--5-5-5-4-4---2-2-2--3--3-3-3-2-2-----|
E|-2-2-2----1--1-1-1-0-0------2-2-2--3--3-3-3-0-0---2-2-2--1--1-1-1-0-0-----|

Verse continued ..............................................
e|------------------------------------------------------------|
B|------------------------------------------------------------|
G|------------------------------------------------------------|
D|-0m-0m-0m---2-2-2-------------------2-2-2-------------------|
A|-0m-0m-0m---2-2-2---3--3-3-3-2-2----2-2-2---3--3-3-3-2-2----|
E|-0m-0m-0m---2-2-2---1--1-1-1-0-0----2-2-2---1--1-1-1-0-0----|

Chorus                                                   %
e|--------------------------------------------------------------------------|
B|--------------------------------------------------------------------------|
G|-----10-9-5--5-5----------------------------------------------------------|
D|-0-0--x-x-x--x-x-2-2-2-2-0-0-0--------------------------------------------|
A|-0-0--8-7-3--3-3-2-2-2-2-0-0-0-----x4--on replay play x8------------------|
E|-0-0-------------2-2-2-2-0-0-0--------------------------------------------|

Then reply from * symbol to % symbol

e|--------------------------------------------------------------------------|
B|--------------------------------------------------------------------------|
G|--------------------------------------------------------------------------|
D|-0m-0m-0m-2-2-2-----0m-0m-0m-2-2-2-2-2-2-2-2-2-2-2-2-2-2-2-2--------------|
A|-0m-0m-0m-2-2-2--x3-0m-0m-0m-2-2-2-2-2-2-2-2-2-2-2-2-2-2-2-2--------------|
E|-0m-0m-0m-2-2-2-----0m-0m-0m-2-2-2-2-2-2-2-2-2-2-2-2-2-2-2-2--------------|
                               ( ^ play fast)
e|--------------------------------------------------------------------------|
B|--------------------------------------------------------------------------|
G|---101010-1010/-121212-1212/----------------------------------------------|
D|---8-8-8--8-8-/-101010-1010/-x8------------------0m-0m-0m--2-2-2----------|
A|---8-8-8--8-8-/-101010-1010/---------------------0m-0m-0m--2-2-2----------|
E|-------------------------------------------------0m-0m-0m--2-2-2----------|
                             (^ slide into repeats)

Points of Authority - Linkin Park

Intro:
x|-----7-------7-------7-------7-------7-------7-------7-------7--------------|x
x|---8---8---8---8---8---8---8---8---8---8---8---8---8---8---8---8------------|x
x|-9-------9-------9-------9-------9-------9-------9-------9------------------|x
x|----------------------------------------------------------------------------|x
x|----------------------------------------------------------------------------|x
x|----------------------------------------------------------------------------|x


x|----------------------------------------------------------------------------|x
x|----------------------------------------------------------------------------|x
x|----------------------------------------------------------------------------|x
x|-2-2-0h3-3-0h2-2h3-0h2-2-0h3-3-2-2-0-0h3--2-2-0h3-3-0h2-2h3-0h2-2-0h3-------|x
x|-2-2-0h3-3-0h2-2h3-0h2-2-0h3-3-2-2-0-0h3--2-2-0h3-3-0h2-2h3-0h2-2-0h3-------|x
x|-2-2-0h3-3-0h2-2h3-0h2-2-0h3-3-2-2-0-0h3--2-2-0h3-3-0h2-2h3-0h2-2-0h3-------|x

Verse:
x|------------------------------------------------------|x
x|------------------------------------------------------|x
x|------------------------------------------|x  <-------|Repeat 5 times
x|2-2-2h3-3--0h2-2h3--0h2-2-2h3--x-2-x-0-x-3------------|x
x|2-2-2h3-3--0h2-2h3--0h2-2-2h3--x-2-x-0-x-3------------|x
x|2-2-2h3-3--0h2-2h3--0h2-2-2h3--x-2-x-0-x-3------------|x

Chorus
x|-----------------------------------------|x
x|-----------------------------------------|x
x|4---5---4---5---4---5---4---5------------|x
x|2---3---2---3---2---3---2---3---2--0--3--|x
x|2---3---2---3---2---3---2---3---2--0--3--|x
x|2---3---2---3---2---3---2---3---2--0--3--|x

Runaway - Linkin Park

Intro/Chorus(distortion)

Eb|--------------------------------------------------|
Bb|--------------------------------------------------|
Gb|--------------------------------------------------|
Db|--5-5-5/8-8-8-8-8--6-6-6/8-8-8-8-8----------------|
Ab|--3-3-3/6-6-6-6-6--6-6-6/8-8-8-8-8----------------|
Db|-------------------6-6-6/8-8-8-8-8----------------|

Bridge(distortion)

Eb|--------------------------------------------------|
Bb|--------------------------------------------------|
Gb|--------------------------------------------------|
Db|--0-0-0-1-0-0-0-0-1--0-0-0-1-0-0-0-0-1------------|
Ab|--0-0-0-1-0-0-0-0-1--0-0-0-1-0-0-0-0-1------------|
Db|--0-0-0-1-0-0-0-0-1--0-0-0-1-0-0-0-0-1------------|
   pm...............    ...............

Faint - Linkin Park

INTRO

-22-------22------------------------------------------------------------------|
-------------------20/22-----20/15-----20/15------20/15------20/15------------|
------------------------------------------------------------------------------|
------------------------------------------------------------------------------|
------------------------------------------------------------------------------|
------------------------------------------------------------------------------|


-22--------------------------------------------------|------------------------|
----------20/22--------20\15-----20\15-----20\15-----|------------------------|
-----------------------------------------------------|--7-7-7-7---------------|
-----------------------------------------------------|--x-x-x-x---------------|
-----------------------------------------------------|--5-5-5-5---------------|
-----------------------------------------------------|------------------------|

GUITAR 1
------------------------------------------------------------------------------|
------------------------------------------------------------------------------|
-7-7-7-14-14\12-12-12-12-12-14-14\10-10---------------------------------------|
-x-x-x--x--x--x--x--x--x--x--x--x-x--x----------------------------------------|
-5-5-5-12-12\10-10-10-10-10-12-12\8--8----------------------------------------|
------------------------------------------------------------------------------|

                                                                            VERSE
---------------------------------------------------------------|--------------|
---------------------------------------------------------------|--------------|
---------------------------------------------------------------|-7-7-7-7------|
-0--------------0-------------0-------------10-10-------5-5----|-x-x-x-x------|
-0--------------0-------------0-------------8--8--------3-3----|-5-5-5-5------|
-0--------------0-------------0-------------8--8--------3-3----|--------------|


CHORUS

GUITAR 1
------------------------------------------------------------------------------|
------------------------------------------------------------------------------|
-7-7-7-14-14\12-12-12-12-12-14-14\10-10---------------------------------------|
-x-x-x--x--x--x--x--x--x--x--x--x-x--x----------------------------------------|
-5-5-5-12-12\10-10-10-10-10-12-12\8--8----------------------------------------|
------------------------------------------------------------------------------|


  END -  guitar 2         end guitar 1
-|------------------|---------------------------------------------------------|
-|------------------|---------------------------------------------------------|
-|------------------|-10-10-10-10-10-10-10-10---------------------------------|
-|-5-5-5-5-5-5-5-5--|-x--x--x--x--x--x--x--x----------------------------------|
-|-3-3-3-3-3-3-3-3--|-8--8--8--8--8--8--8--8----------------------------------|
-|-3-3-3-3-3-3-3-3--|---------------------------------------------------------|

BRIDGE
------------------------------------------------------------------------------|
------------------------------------------------------------------------------|
------------------------------------------------------------------------------|
-0--7--3-2-3-2--0--0--7--3-2-3-2----------------------------------------------|
-0--7--3-2-3-2--0--0--7--3-2-3-2----------------------------------------------|
-0--7--3-2-3-2--0--0--7--3-2-3-2----------------------------------------------|

OUTRO
------------------------------------------------------------------------------|
------------------------------------------------------------------------------|
------------------------------------------------------------------------------|
-0--0--0--0--0--0--0--5--5--5-/-7--3--3--3------------------------------------|
-0--0--0--0--0--0--0--3--3--3-/-7--3--3--3------------------------------------|
-0--0--0--0--0--0--0--3--3--3-/-7--3--3--3------------------------------------|


------------------------------------------------------------------------------|
------------------------------------------------------------------------------|
------------------------------------------------------------------------------|
-8--8--8--8--8--8--8--5--5--5-/-7--3--3--3------------------------------------|
-8--8--8--8--8--8--8--5--5--5-/-7--3--3--3------------------------------------|
-8--8--8--8--8--8--8--5--5--5-/-7--3--3--3------------------------------------|

END OUTRO - guitar 1         END OUTRO  - guitar 2
------------------------|-----------------------------------------------------|
------------------------|-----------------------------------------------------|
-10-10-10-10-8-8-8-8----|-----------------------------------------------------|
-x--x--x--x--x-x-x-x----|-5--5--5--5--1--1--1--1------------------------------|
-8--8--8--8--6-6-6-6----|-3--3--3--3--1--1--1--1------------------------------|
------------------------|-3--3--3--3--1--1--1--1------------------------------|

From The Inside - Linkin Park

[Chorus 00:07 - 00:22]
-|BRAD-&-MIKE----------------------------------------|
-|---------------------------------------------------|
-|---------------------------------------------------|
-|-00-0-000-0-033-3-333-3-388-8-888-8-855-5-577-7-7--|
-|-00-0-000-0-033-3-333-3-388-8-888-8-855-5-577-7-7--|
-|-00-0-000-0-033-3-333-3-388-8-888-8-855-5-577-7-7--|
Play twice


[Verse 00:22 - 00:41] I don't know who to trust...
-|-5---5---5---------------|- -|-5---5---5----------------|
-|-------------5---5---6---|- -|-------------5---5---5----|
-|---7---7---7---7---7---7-|- -|---7---7---7---7---7---7--|
-|-------------------------|- -|--------------------------|
-|BRAD---------------------|- -|BRAD----------------------|
-|-------------------------|- -|--------------------------|
Play four times Play once
Clean tone


[Verse Con't 00:41 - 00:52] Every time I try...
-|-5---5---5---------------|--|-5---5---5---------------|--|-5----|
-|-------------5---5---6---|--|-------------5---5---5---|--|------|
-|---7---7---7---7---7---7-|--|---7---7---7---7---7---7-|--|---7--|
-|-------------------------|--|-------------------------|--|------|
-|BRAD---------------------|--|BRAD---------------------|--|BRAD--|
-|-------------------------|--|-------------------------|--|------|
Play once Play once Play five times


[Pre-Chorus 00:52 - 00:52]
-|BRAD-&-MIKE---|
-|--------------|
-|--------------|
-|--------------|
-|--------------|
-|-*5-*5-*5-*5--|
Play Once
Distortion


[Chorus 00:52 - 01:07] Take everything from the inside...
-|BRAD-&-MIKE----------------------------------------|
-|---------------------------------------------------|
-|---------------------------------------------------|
-|-00-0-000-0-033-3-333-3-388-8-888-8-855-5-577-7-7--|
-|-00-0-000-0-033-3-333-3-388-8-888-8-855-5-577-7-7--|
-|-00-0-000-0-033-3-333-3-388-8-888-8-855-5-577-7-7--|
Play twice


[Verse 01:07 - 01:26] Tension is building inside...
-|-5---5---5---------------|- -|-5---5---5----------------|
-|-------------5---5---6---|- -|-------------5---5---5----|
-|---7---7---7---7---7---7-|- -|---7---7---7---7---7---7--|
-|-------------------------|- -|--------------------------|
-|BRAD---------------------|- -|BRAD----------------------|
-|-------------------------|- -|--------------------------|
Play four times Play once
Clean tone


[Verse Con't 01:26 - 01:37] Every time I try...
-|-5---5---5---------------|--|-5---5---5---------------|--|-5----|
-|-------------5---5---6---|--|-------------5---5---5---|--|------|
-|---7---7---7---7---7---7-|--|---7---7---7---7---7---7-|--|---7--|
-|-------------------------|--|-------------------------|--|------|
-|BRAD---------------------|--|BRAD---------------------|--|BRAD--|
-|-------------------------|--|-------------------------|--|------|
Play once Play once Play five times


[Pre-Chorus 01:37 - 01:37]
-|BRAD-&-MIKE---|
-|--------------|
-|--------------|
-|--------------|
-|--------------|
-|-*5-*5-*5-*5--|
Play Once
Distortion


[Chorus 01:37 - 01:45] Take everything from the inside...
-|BRAD-&-MIKE----------------------------------------|
-|---------------------------------------------------|
-|---------------------------------------------------|
-|-00-0-000-0-033-3-333-3-388-8-888-8-855-5-577-7-7--|
-|-00-0-000-0-033-3-333-3-388-8-888-8-855-5-577-7-7--|
-|-00-0-000-0-033-3-333-3-388-8-888-8-855-5-577-7-7--|
Play Once


[Chorus Con't 01:45 - 01:53] Away, cuz I swear...
-|BRAD-&-MIKE----------------------------------------|
-|---------------------------------------------------|
-|---------------------------------------------------|
-|-00-0-000-0-033-3-333-3-388-8-888-8-877-7-777-7-7--|
-|-00-0-000-0-033-3-333-3-388-8-888-8-877-7-777-7-7--|
-|-00-0-000-0-033-3-333-3-388-8-888-8-877-7-777-7-7--|
Play Once


[Bridge 01:53 - 01:59]
-|BRAD-&-MIKE----------------------|
-|---------------------------------|
-|---------------------------------|
-|-00-0-0--00-0-0--00-0-0--11-1-1--|
-|-00-0-0--00-0-0--00-0-0--11-1-1--|
-|-00-0-0--00-0-0--00-0-0--11-1-1--|
Play Once (Don't let these chords ring)


[Bridge Con't 01:59 - 02:17] You...
-|BRAD-&-MIKE----------------------------------------------|
-|---------------------------------------------------------|
-|---------------------------------------------------------|
-|-00-0-0----0-1-00-0-0----0-1-00-0-0----0-1-11-1-111-1-1--|
-|-00-0-0-*7-0-1-00-0-0-*7-0-1-00-0-0-*7-0-1-11-1-111-1-1--|
-|-00-0-0----0-1-00-0-0----0-1-00-0-0----0-1-11-1-111-1-1--|
Play twice (Don't let these chords ring)


[Chorus 02:20 - 02:23] Inside...
-|BRAD-&-MIKE----------------|
-|---------------------------|
-|---------------------------|
-|-88-8-888-8-855-5-577-7-7--|
-|-88-8-888-8-855-5-577-7-7--|
-|-88-8-888-8-855-5-577-7-7--|
Play Once


[Chorus Con't 02:23 - 02:38] Away, cuz I swear...
-|BRAD-&-MIKE----------------------------------------|
-|---------------------------------------------------|
-|---------------------------------------------------|
-|-00-0-000-0-033-3-333-3-388-8-888-8-855-5-577-7-7--|
-|-00-0-000-0-033-3-333-3-388-8-888-8-855-5-577-7-7--|
-|-00-0-000-0-033-3-333-3-388-8-888-8-855-5-577-7-7--|
Play twice


[Chorus Con't 02:38 - 02:46] Away, cuz I swear...
-|BRAD-&-MIKE----------------------------------------|
-|---------------------------------------------------|
-|---------------------------------------------------|
-|-00-0-000-0-033-3-333-3-388-8-888-8-877-7-777-7-7--|
-|-00-0-000-0-033-3-333-3-388-8-888-8-877-7-777-7-7--|
-|-00-0-000-0-033-3-333-3-388-8-888-8-877-7-777-7-7--|
Play Once


[Outro 02:46 - 02:53] You...
-|BRAD-&-MIKE----------------------|
-|---------------------------------|
-|---------------------------------|
-|-00-0-0--00-0-0--00-0-0--00-0-0--|
-|-00-0-0--00-0-0--00-0-0--00-0-0--|
-|-00-0-0--00-0-0--00-0-0--00-0-0--|

Numb - Linkin Park

Chorus - 0:51 "I've become so numb, I can't feel you there...."

let notes ring through
--------------------------------------------------------------|
--------------------------------------------------------------|
--------------------------------------------------------------| Repeat once
-5--------------1--------------8--------------3---------------|     more
-5--------------1--------------8--------------3---------------|
-5--------------1--------------8--------------3---------------|

Bridge - 2:02 "And I know, I may end up failing too..."
-------------------------------------------------------------------------------|
-------------------------------------------------------------------------------|
-------------------------------------------------------------------------------|
-1-------------3--------------5----7----8----0----1-------------3--------------|
-1-------------3--------------5----7----8----0----1-------------3--------------|
-1-------------3--------------5----7----8----0----1-------------3--------------|


----------------------------------------------|
----------------------------------------------|
----------------------------------------------|
-0-------------0---------------0--------------|
-0-------------0---------------0--------------|
-0-------------0---------------0--------------|


Chorus - 2:21 "I've become so numb, I can't feel you there"
-------------------------------------------------------------|
-------------------------------------------------------------|
-------------------------------------------------------------| play three more
-5--------------1--------------8---------------3-------------|      times
-5--------------1--------------8---------------3-------------|
-5--------------1--------------8---------------3-------------|

Crawling - Linkin Park

x|-------------------------------------|x
x|-------------------------------------|x
x|-------------------------------------|x
x|-------------------------------------|x
x|-------------------------------------|x
x|--10*-10*-10*10*--10*-10*------------|x

Chorus:
x|--------------------------------------------|x
x|--------------------------------------------|x
x|--------------------------------------------|x
x|-0--8--3--10--7--------------------|x  <----| 2 times
x|-0--8--3--10--7-----------------------------|x
x|-0--8--3--10--7-----------------------------|x

Verse
Chorus(x4)

In The End - Linkin Park

Chorus
Eb|---------------------|
Bb|---------------------|
Gb|---------------------|
Db|-2---5---0-------6---|
Ab|-2---3---0---9---6---|
Db|-2-------0---7---6---|

Bridge(distortion)

Eb|---------------------------|
Bb|---------------------------|
Gb|---------------------------|
Db|-2-2-2-5-5-5-0-0-0-----6---|
Ab|-2-2-2-3-3-3-0-0-0-9-9-6---|
Db|-2-2-2-------0-0-0-7-7-6---|

One Step Closer - Linkin Park

Intro(0:01)

|--------------------------------|
|--------------------------------|
|--------------------------------|   Repeat 4 Times.
|--------------------------------|
|------------7-------------------|
|-0--5*--7*-------8--7*---0----3-|

Verse(0:10)

|---------------------|
|---------------------|
|--------9----------5-|  Repeat 4 Times
|-0-0-x--x---8-7-x--x-|     Then Repeat 8 times
|-0-0-x--7---8-7-x--3-|            Lightly.
|-0-0-x------8-7-x----|
      .          .

Pre Chorus(0:40)

|-------------|
|-------------|
|-------------|  Repeat 3 times
|-5-5-x-x-x---|    **note**
|-5-5-x-x-x---|  When doing the dead notes place your
|-5-5-x-x-x---|  finger over the 5th bar fret like your doing
      . . .      a harmonic, well you could mute the harmonic
                       well heres the alternative pre chorus

Chorus(0:44)

|----------------------------------------------|
|----------------------------------------------|
|------------------------------------------3---|
|-0-0-0--12--10-10--7-7--10-10--5-5--7-7---1---| Repeat 2 times.
|-0-0-0--12--10-10--7-7--8-8----5-5--7-7---1---|
|-0-0-0--12--10-10--7-7--8-8----5-5--7-7---1---|

Verse(0:54)

|---------------------|
|---------------------|
|--------9----------5-|
|-0-0-x--x---8-7-x--x-|    Repeat 8 times lightly
|-0-0-x--7---8-7-x--3-|
|-0-0-x------8-7-x----|
      .          .

Pre Chorus(1:14)

|----------------2.6*------------|
|------------------2.6*-2.6*-----|
|--------------------------2.6*--|  *note*
|-5-5-x-x-x----------------------|  The third time u play the 5's
|-5-5-x-x-x---X3-----------------|  dont play the muted notes! GO STRAIGHT
|-5-5-x-x-x----------------------|  TO THE HARMONICS!!!! 2.6 means place ur
      . . .                         finger on the third fret bar BUT move down like
                                    0.5 inches.
Chorus(1:18)

|----------------------------------------------|
|----------------------------------------------|
|------------------------------------------3---|
|-0-0-0--12--10-10--7-7--10-10--5-5--7-7---1---| Repeat 4 times.
|-0-0-0--12--10-10--7-7--8-8----5-5--7-7---1---|
|-0-0-0--12--10-10--7-7--8-8----5-5--7-7---1---|


Chorus Ender(1:38)

|---|
|---|
|-3-|
|-1-|  Repeat 8 times
|-1-|
|-1-|


Breakdown Begginer(1:41)

|--------------------------------|
|--------------------------------|
|--------------------------------| Repeat 4 times
|--------------------------------|
|------------7-------------------|
|-0--5*--7*-------8--7*---0----3-|
  .  .   .        .  .    .    .


Breakdown(1:51)

|--------------------------|
|--------------------------|
|--------------------------|
|-1-0-x-x-x-3-1-0-0-6--0-3-| Repeat 3 times
|-1-0-x-x-x-3-1-0-0-6--0-3-|
|-1-0-x-x-x-3-1-0-0-6--0-3-|

Part 2(1:58)

|--------------------------|
|--------------------------|
|--------------------------| Once only(do after Breakdown)
|-1-0-x-x-x-3-1-0-0-X-X-X--| *note* For the Xs strum them
|-1-0-x-x-x-3-1-0-0-X-X-X--|             HARD.
|-1-0-x-x-x-3-1-0-0-X-X-X--|

Part 3(2:01)

|--------------------------|
|--------------------------|
|--------------------------|
|-1-0-x-x-x-3-1-0-0-6--0-3-| Repeat 3 times
|-1-0-x-x-x-3-1-0-0-6--0-3-|
|-1-0-x-x-x-3-1-0-0-6--0-3-|

Breakdown Ender(2:08)

|----------------------------|
|----------------------------|
|----------------------------| Hit those X hard man....
|-1-0-x-x-x-3-1-0-0-X-X-X-X--|
|-1-0-x-x-x-3-1-0-0-X-X-X-X--|
|-1-0-x-x-x-3-1-0-0-X-X-X-X--|


Chorus(2:11)

|----------------------------------------------|
|----------------------------------------------|
|------------------------------------------3---|
|-0-0-0--12--10-10--7-7--10-10--5-5--7-7---1---| Repeat 4 times.
|-0-0-0--12--10-10--7-7--8-8----5-5--7-7---1---|
|-0-0-0--12--10-10--7-7--8-8----5-5--7-7---1---|


End(2:31)

|---|
|---|
|-3-| Repeat 8 times.
|-1-|
|-1-|
|-1-|

Enjoy
Suggest correction
comments
print report bad tab
8 comments total. Showing first comments.
0 reply
im not mental 271 wrote on August 19 2004, 12:00 am

LP plays in Drop Db and on Runaway they use 7 strings.

0 reply
lyingfromyou118 200 wrote on August 19 2004, 12:00 am

Yea, they're default tuning is C# (Db), and they play a few songs on 7 strings like Don't Stay.

+1 reply
spill 154 wrote on March 14 2005, 12:00 am

i gave u 3 stars coz i love sum of these tabbs but quite frankly...... U MISSED PUSHING ME AWAY OUT!....n its like 1 of thr best songs i reckon but y wasnt by myself on the cd tht song rulez. neway nice work

guest
You may want to rate the tab now too:
select rating
Please do not post tabs as comments. Select "correction" instead!