Oops, an error
Loading. Please wait.

Lost In The Echo Bass Tab

version 1
version 1

Whole song

Interactive

5,247 views 9 this week
1 commentread comment
1 2 3 4 5
excellent!
x 4
add to favorites
launch autoscroll
font size
0
reset
guitar tuner
Autoscroll
slow
fast
+/-
esc
set tempo
stop
Help us to improve Ultimate-Guitar.com Take our survey!
×
Difficulty
novice
This is the first song of the album Living Things.

May not be perfect but sounds pretty good to me =D
Enjoy !

> Intro 00:10
G|-----------------|    |-------------10--|
D|-----------------|    |---------10------|
A|-----------------| x3 |-8--8--8---8-----|
E|-5--5--5-5--5--5-|    |-----------------|
   ^   ^   ^   ^          ^   ^   ^   ^   

G|-----------------|-----------------|-----------------|-------------7---|
D|-----------------|-----------------|-----------------|---------7-------|
A|-----------------|-----------------|-----------------|-5--5--5---5-----| x2
E|-5--5--5---------|-3--3--3---------|-1--1--1---------|-----------------|
   ^   ^   ^   ^     ^   ^   ^   ^     ^   ^   ^   ^     ^   ^   ^   ^   


> Nothing on Verse 1


> Pre-chorus (00:50)
G|-----------------|-----------------|-----------------|-----------------|
D|-----------------|-----------------|-5--5--5-5--5--5-|-----------------|
A|-----------------|-----------------|-----------------|-----------------|
E|-1--1--1-1--1--1-|-5--5--5-5--5--5-|-----------------|-5--5--5-5--5--5-|
   ^   ^   ^   ^     ^   ^   ^   ^     ^   ^   ^   ^     ^   ^   ^   ^   
{______________________________________________________}
                           x2 
                                                      G|-------h-----g---|
                                                      D|---o-----i-------|
                                              then    A|-----t---------!-|
                                                      E|-n---------n-----|
                                                         ^   ^   ^   ^   

> Chorus (01:06)
G|-----------------|-----------------|-----------------|-------------7---|
D|-----------------|-----------------|-----------------|---------7-------|
A|-----------------|-----------------|-----------------|-5--5--5---5-----| x2
E|-5--5--5-5-------|-3--3--3-3-------|-1--1--1-1-------|-----------------|
   ^   ^   ^   ^     ^   ^   ^   ^     ^   ^   ^   ^     ^   ^   ^   ^ 

G|-----------------|-----------------|-----------------|-------------7---|
D|-----------------|-----------------|-----------------|---------7-------|
A|-----------------|-----------------|-----------------|-5--5--5---5-----|
E|-5--5--5---------|-3--3--3---------|-1--1--1---------|-----------------|
   ^   ^   ^   ^     ^   ^   ^   ^     ^   ^   ^   ^     ^   ^   ^   ^   
  

> Verse 2 (01:30)
G|-----------------|-----------------|-----------------|-----------------|
D|-----------------|-----------------|-----------------|-----------------|
A|-----------------|-----------------|-----------------|-5--5--5---------|
E|-----------------|-3--3--3---------|-1--1--1---------|-----------------|
   ^   ^   ^   ^     ^   ^   ^   ^     ^   ^   ^   ^     ^   ^   ^   ^   

G|-----------------|-----------------|-----------------|-------------7---|
D|-----------------|-----------------|-----------------|---------7-------|
A|-----------------|-----------------|-----------------|-5--5--5---5-----|
E|-5---------------|-3--3--3---------|-1--1--1---------|-----------------|
   ^   ^   ^   ^     ^   ^   ^   ^     ^   ^   ^   ^     ^   ^   ^   ^   


> Pre-chorus (01:46)
G|-----------------|-----------------|-----------------|-----------------|
D|-----------------|-----------------|-5--5--5-5--5--5-|-----------------|
A|-----------------|-----------------|-----------------|-----------------|
E|-1--1--1-1--1--1-|-5--5--5-5--5--5-|-----------------|-5--5--5-5--5--5-|
   ^   ^   ^   ^     ^   ^   ^   ^     ^   ^   ^   ^     ^   ^   ^   ^   
{______________________________________________________}
                           x2 
                                                      G|-------h-----g---|
                                                      D|---o-----i-------|
                                         and again    A|-----t---------!-|
                                                      E|-n---------n-----|
                                                         ^   ^   ^   ^   

> Chorus (02:02)
G|-----------------|-----------------|-----------------|-------------7---|
D|-----------------|-----------------|-----------------|---------7-------|
A|-----------------|-----------------|-----------------|-5--5--5---5-----| x2
E|-5--5--5-5-------|-3--3--3-3-------|-1--1--1-1-------|-----------------|
   ^   ^   ^   ^     ^   ^   ^   ^     ^   ^   ^   ^     ^   ^   ^   ^ 


> No bass during the break


> Reprise (02:34)
G|-----------------|-----------------|-----------------|-------------7---|
D|-----------------|-----------------|-----------------|---------7-------|
A|-----------------|-----------------|-----------------|-5--5--5---5-----|
E|-5--5--5---------|-3--3--3---------|-1--1--1---------|-----------------|
   ^   ^   ^   ^     ^   ^   ^   ^     ^   ^   ^   ^     ^   ^   ^   ^   
  
G|-----------------|-----------------|-----------------|-------------7---|
D|-----------------|-----------------|-----------------|---------7-------|
A|-----------------|-----------------|-----------------|-5--5--5---5-----|
E|-5--5--5-5-------|-3--3--3-3-------|-1--1--1-1-------|-----------------|
   ^   ^   ^   ^     ^   ^   ^   ^     ^   ^   ^   ^     ^   ^   ^   ^   


> Chorus (02:51)
G|-----------------|-----------------|-----------------|-------------7---|
D|-----------------|-----------------|-----------------|---------7-------|
A|-----------------|-----------------|-----------------|-5--5--5---5-----|
E|-----------------|-----------------|-1--1--1-1-------|-----------------|
   ^   ^   ^   ^     ^   ^   ^   ^     ^   ^   ^   ^     ^   ^   ^   ^ 

G|-----------------|-----------------|-----------------|-------------7---|
D|-----------------|-----------------|-----------------|---------7-------|
A|-----------------|-----------------|-----------------|-5--5--5---5-----| x3
E|-5--5--5-5-------|-3--3--3-3-------|-1--1--1-1-------|-----------------|
   ^   ^   ^   ^     ^   ^   ^   ^     ^   ^   ^   ^     ^   ^   ^   ^ 

End.
Suggest correction
What's this?
You can suggest a correction to this tab. Community and Mods will review your correction and vote to approve or reject it.
comments
print report bad tab
1 comment total.
0 reply
tsk187 11 wrote on June 24 2013, 07:21 am

Great tab, really enjoyed playing this song! Just one part I thought wasn't quite right:

G|-----------------|-----------------|-----------------|-------------7---|
D|-----------------|-----------------|-----------------|---------7-------|
A|-----------------|-----------------|-----------------|-5--5--5---5-----|
E|-5--5--5---------|-3--3--3---------|-1--1--1---------|-----------------|

At the end should be

G|-------------5---| G|-----------------|
D|---------7-------| OR D|---------7---/10-| (I prefer sliding!)
A|-5--5--5---5-----| A|-5--5--5---5-----|
E|-----------------| E|-----------------|

guest
You may want to rate the tab now too:
select rating
Please do not post tabs as comments. Select "correction" instead!