Oops, an error
Loading. Please wait.

Lying From You bass

version 3
version 3

Whole song

1,431 views 9 this week
no commentswrite comment
1 2 3 4 5
x 6
add to favorites
×
Save as Personal and add changes to this tab that will be seen only by you. Learn more ›
×
You can save this tab as Personal to edit and correct it or add notes. All changes will be seen only by you. Learn more »
launch autoscroll
font size
0
reset
guitar tuner
backing track
0:00
0:00
edit
Autoscroll
slow
fast
+/-
esc
set tempo
stop
-------------------------------------------------------------------------------
		        "Lying From You" - LINKIN PARK
-------------------------------------------------------------------------------
Album: Meteora (2003)
Bassist: "Phoenix"(Dave Farrell)
Tabbed by: TheBrokeBassist/Tydogg2443
Tuning: Drop-Db (DbAbDbGb | C#G#C#F#)
REVISED: 4/15/2014
_______________________________________________________________________________

(0:00-0:11 | No Bass)

INTRO (0:12)
Gb|-------------------|      |-----------------|
Db|-------------------|      |-----------------|
Ab|-------------------|  x3  |-----------------|
Db|-02-1-0-3-2-1-06(6)| then |-02-1-0-3-2-1x---|


VERSE (0:24) 
Gb|-------------------------|-------------------------|
Db|-------------------------|-------------------------|
Ab|-------------------------|-------------------------|
Db|-2-2x------5-5x---00-0-0-|-2-2x------5-5x---00--0--|

  |-------------------------|--------------------------|
  |-------------------------|--------------------------|
  |-------------------------|--------------------------|
  |-2-2x------5-5x---00-000-|-2-2x------5-5-55--77-7-7-|


CHORUS (0:48)
Gb|--------------------------|---------------------------|
Db|--------------------------|---------------------------|
Ab|--------------------------|-3-3x-----0-0-0-00---------|
Db|-2-2x------5-5-55--00-0-0-|--------------------00-0-0-|

  |-----------------------------|----------------------------|
  |-----------------------------|----------------------------|
  |-----------------------------|-3-3x----3/5-0-0-0-00-------|
  |-2-2x-----X/5-5-55-5--00-0-0-|----------------------00--0-|


VERSE (1:12)
Gb|-------------------------|-------------------------|
Db|-------------------------|-------------------------|
Ab|-------------------------|-------------------------|
Db|-2-2x------5-5x---00-0-0-|-2-2x------5-5x---00--0--|

  |-------------------------|--------------------------|
  |-------------------------|--------------------------|
  |-------------------------|--------------------------|
  |-2-2x------5-5x---00-000-|-2-2x------5-5-55--77-7-7-|


CHORUS 2 (1:36)
Gb|--------------------------|----------------------------|
Db|--------------------------|----------------------------|
Ab|--------------------------|-3-3x------0-0-0-00---------|
Db|-2-2x------5-5-55--00-0-0-|---------------------00-0-0-|

  |-----------------------------|----------------------------------------------|
  |-----------------------------|----------------------------------------------|
  |-----------------------------|-3-3x----3/5-0-0-00-0-00-0-0--0-0-00-0--------|
  |-2-2x-----X/5-5-55-5--00-0-0-|----------------------------------------00----|


BRIDGE (2:03)
Gb|-------------------|      |-----------------|
Db|-------------------|      |-----------------|
Ab|-------------------|  x3  |-----------------|
Db|-02-1-0-3-2-1-06(6)| then |-02-1-0-3-2-1x---|

  |-------------------|      |-----------------|
  |-------------------|      |-----------------|
  |-------------------|  x3  |-----------------|
  |-02-1-0-3-2-1-06(6)| then |-02-1-0-3-2-1x---|


CHORUS 3 (2:27)
Gb|--------------------------|----------------------------|
Db|--------------------------|----------------------------|
Ab|--------------------------|-3-3x------0-0-0-00---------|
Db|-2-2x------5-5-55--00-0-0-|---------------------00-0-0-|

  |-----------------------------|---------------------------------------|----------||
  |-----------------------------|---------------------------------------|----------||
  |-----------------------------|-3-3x----3/5-0-0-00-0-00-0-0--0-0-00-0-|----------||
  |-2-2x-----X/5-5-55-5--00-0-0-|---------------------------------------|-00--0x---||


END (2:51)

===============================================
To contact me or to view a tabbed video of this song, visit: http://www.youtube.com/tydogg2443
Follow me on Twitter: @TheBrokeBassist
-----------------------------------------------
TABLATURE KEY:
(): Optional Note/Variation
 /: Slide Up
 \: Slide down
 X: Ghost Note
 x: Mute Note
 h: Hammer-On
 p: Pull-Off
===============================================

            
            
Suggest correction
Creating personal tab
Creating personal tab
You can edit any tab online and save it as your Personal.

You can edit, replace or remove any tab part or add personal notes – all changes will be seen only by you.

Personal tabs can be accessed anytime from any device, even offline.
Learn more »
comments
print report bad tab
guest
You may want to rate the tab now too:
select rating
Wanna post a correction for this tab? Suggest correction