Oops, an error
Loading. Please wait.

Lying From You Tab

version 6
2,813 views 7 this week
4 commentsread comments
1 2 3 4 5
accurate
x 8
add to favorites
launch autoscroll
font size
0
reset
how to read this tab
guitar tuner
Tab Pro tools
  • play this tab
  • loop segment
  • change instrument
  • show fretboard
  • metronome
×
Best way to learn
"Lying From You"
Autoscroll
slow
fast
+/-
esc
set tempo
stop
Contributor
Linkin Park - Lying From You
Tabbed by - Killl_Roy
Tuning - NORMAL!! (good news aint it?)

this tab is 95% correct, not trying to be proudnjust stating the truth
hope you fellow guitarists wont be mad at me? ;-P

Legend;
x= dont play
*= 10th fret
--PM--= palm mute

INTRO
e--------11-11-11--11----------18--18-18--18-----|
B--11-11---------------11-11---------------------|
G------------------------------------------------|
D------------------------------------------------|
A------------------------------------------------|
E------------------------------------------------|x2

e--------------------------------------------------|
B--------------------------------------------------|
G--------------------------------------------------|
D----------------------------5---------------------|
A--4-4-4-4---4-6-5-4-7-6-5-4-5---------------------|
E--4-4-4-4---4-6-5-4-7-6-5-4-x---------------------|
   __PM___

e-------------------------------------------|
B-------------------------------------------|
G-------------------------------------------|
D----------------------5--------------------|
A------4-6-5-4-7-6-5-4-5--------------------|
E------4-6-5-4-7-6-5-4-x--------------------|

VERSE
e------------------------------------------------------|
B------------------------------------------------------|
G------------------------------------------------------|
D---------4-4-------------------4-4--------------------|
A---6-6---4-4--4-4-4-4--4-6-6---4-4-4-4-4-4--4-6-6-----|
E---6-6--------4-4-4-4--4-6-6-------4-4-4-4--4-6-6-----|

e------------------------------------------------------|
B------------------------------------------------------|
G------------------------------------------------------|
D------------------4-4-4-4--4-6--6-6-------------------|
A--4-4-4-4--4-6-6--4-4-4-4--4-6--6-6-------------------|
E--4-4-4-4--4-6-6--------------------------------------|

fun begins! p/s: * is 10, dun wanna jumble everything up
Chorus
e----------------------/------------------------------------------|
B----------------------/------------------------------------------|
G-------*---6-6-6-8--8-/--------------------------*---6-6-6-8--8--|
D-------x---x-x-x-x--x-/--4-4-4--4-4--------------x---x-x-x-x--x--|
A--6-6--8---4-4-4-6--6-/--4-4-4--4-4-4-4-4-4--2-2-8---4-4-4-6--6--|
E--6-6-----------------/-------------4-4-4-4--2-2-----------------|

                       ^play here....

e---------------------------------------------/------------|
B----------------------------*---6-6-6-8--8---/------------|
G----------------------------x---x-x-x-x--x---/------------|
D--6-6-6--6-6----------------8---4-4-4-6--6---/------------|
A--6-6-6--6-6-4-4--4-4-4-6-6------------------/------------|
E-------------4-4--4-4-4-6-6------------------/------------|
 lemme take back my life!!                    ^ ..here..


BRIDGE
e--------------------------------------------------|
B--------------------------------------------------|
G--------------------------------------------------|
D----------------------------5---------------------|
A--4-4-4-4---4-6-5-4-7-6-5-4-5---------------------|
E--4-4-4-4---4-6-5-4-7-6-5-4-x---------------------|
i never want it to be...

VERSE after BRIDGE
e----------------------/------------------------------------------|
B----------------------/------------------------------------------|
G-------*---6-6-6-8--8-/--------------------------*---6-6-6-8--8--|
D-------x---x-x-x-x--x-/--4-4-4--4-4--------------x---x-x-x-x--x--|
A--6-6--8---4-4-4-6--6-/--4-4-4--4-4-4-4-4-4--2-2-8---4-4-4-6--6--|
E--6-6-----------------/-------------4-4-4-4--2-2-----------------|

                       ^play here....

e---------------------------------------------/------------|
B----------------------------*---6-6-6-8--8---/------------|
G----------------------------x---x-x-x-x--x---/------------|
D--6-6-6--6-6----------------8---4-4-4-6--6---/------------|
A--6-6-6--6-6-4-4--4-4-4-6-6------------------/------------|
E-------------4-4--4-4-4-6-6------------------/------------|
 lemme take back my life!!                    ^ ..here..

e---------------------------|
B---------------------------|
G---------------------------|
D--6-6-6--6-6---------------|
A--6-6-6--6-6-4-4--4-4-4----|
E-------------4-4--4-4-4----|
                             -FIN-

Flames? Praises? killl_roy@hotmail.com
comments
print report bad tab
4 comments total. Showing first comments.
0 reply
Eincrou wrote on May 26 2004, 12:00 am

You can't be more than 25% correct if the tuning is wrong...

0 reply
americanidiot71 wrote on June 13 2006, 11:13 pm

wow dude and your trying to be cool sauing yeaa its 95% correct.... 95% correct my ass!

0 reply
dark_falco3000 wrote on November 20 2006, 07:33 pm

I'd say about 2%

I want to post or [tab]
guest
You may want to rate the tab now too:
select rating
Please do not post tabs as comments. Select "correction" instead!