Oops, an error
Loading. Please wait.

Lying From You Tab

version 8
5,402 views 3 this week
no commentswrite comment
1 2 3 4 5
please rate
add to favorites
launch autoscroll
font size
0
reset
how to read this tab
guitar tuner
Tab Pro tools
  • play this tab
  • loop segment
  • change instrument
  • show fretboard
  • metronome
×
Best way to learn
"Lying From You"
Autoscroll
slow
fast
+/-
esc
set tempo
stop
Contributor
Difficulty
intermediate
Band: Linkin Park
Song: Lying From You
Album: Meteora
Tuning: The whole song is tuned in drop D, half step down (C#,G#,C#,F#,A#,D#)

Intro [Part one]:
D#|--7-7-7--7--/12-12-12\--7-7-7\-6/-7-7-7--7\--|
A#|---------------------------------------------|
F#|---------------------------------------------|
C#|---------------------------------------------|
G#|---------------------------------------------|
C#|---------------------------------------------|

Intro(Part two):
D#|--------------------------------------|
A#|--------------------------------------|
F#|--------------------------------------|
C#|--x-x-x-x-0--2--1--0--3--2--1--0-6-6--| 
G#|--x-x-x-x-0--2--1--0--3--2--1--0-6-6--|
C#|--x-x-x-x-0--2--1--0--3--2--1--0-6-6--|
               Let ring!!!
  ------------------------------------>

Play this four times. The fourth time goes up to the verse so you play this:
D#|-----------------------------------------------------------------|
A#|--------------------------------7--7-----------------------------|
F#|--------------------------------7--7-----------------------------|
C#|--x-x-x-x-2--2------------------5--5------------------0-0--0--0--| 3x!!
G#|--x-x-x-x-2--2------------------5--5------------------0-0--0--0--|
C#|--x-x-x-x-2--2------------------5--5------------------0-0--0--0--|
           When I pretend...

Pre Chorus:
D#|--------------------------------------------|
A#|------------------------7--7-7-7-7----------|
F#|------------------------7--7-7-7-7----------|
C#|--2--2------------------5--5-5-5-5-7-7--7-7-|
G#|--2--2------------------5--5-5-5-5-7-7--7-7-|
C#|--2--2------------------5--5-5-5-5-7-7--7-7-|
                        ...Lying my way from - 
Chorus:
D#|------------------------------------------------------------|
A#|-------------------------------------7-7-7--7--7-7----------|
F#|--------11-11-11-11-11-7-7-7-9-9-9-9-7-7-7--7--7-7----------|
C#|--2--2-x-x--x--x--x--x-x-x-x-x-x-x-x-5-5-5--5--5-5-0-0--0--0| 3x!
G#|--2--2-x-9--9--9--9--9-5-5-5-7-7-7-7-5-5-5--5--5-5-0-0--0--0|
G#|--2--2-x-9--9--9--9--9-5-5-5-7-7-7-7-5-5-5--5--5-5-0-0--0--0|
   - Youuuuu...
            No - No turning back now!

D#|--------------------------------------------------------------|
A#|-------------------------------------7-7-7--7--7-7------------|
F#|--------11-11-11-11-11-7-7-7-9-9-9-9-7-7-7--7--7-7------------|
C#|--2--2-x-x--x--x--x--x-x-x-x-x-x-x-x-5-5-5--5--5-5-0-0-0---0--|
G#|--2--2-x-9--9--9--9--9-5-5-5-7-7-7-7-5-5-5--5--5-5-0-0-0---0--|
C#|--2--2-x-----------------------------5-5-5--5--5-5-0-0-0---0--|
  - I can seeee...                   ...worst part of you   Is me...
            No - No turning back now!    

Bridge:
D#|------------------------------|
A#|------------------------------|
F#|------------------------------|
C#|--0--2--1--0--3--2--1--0-6-6--| 8x!
G#|--0--2--1--0--3--2--1--0-6-6--|
C#|--0--2--1--0--3--2--1--0-6-6--|
   - Meeeeee...                                                  
  
Than play chorus like the first chorus!
comments
We did not receive enough feedback on this tab! Please rate:
print report bad tab
1 2 3 4 5
I want to post or [tab]
guest
You may want to rate the tab now too:
select rating
Please do not post tabs as comments. Select "correction" instead!