Oops, an error
Loading. Please wait.

Meteora Tab

version 1
version 1
48,311 views 9 this week
10 commentsread comments
1 2 3 4 5
accurate
x 23
add to favorites
launch autoscroll
font size
0
reset
how to read this tab
guitar tuner
Autoscroll
slow
fast
+/-
esc
set tempo
stop
Help us to improve Ultimate-Guitar.com Take our survey!
×
Author
1. Foreword- no guitar part 

2. Don’t stay 7-string guitar arranged for a six string

Intro/Verse
C#------------------------------
G#------------------------------
E ------------------------------
B --0-0-0-7-3-5-5-5-8-7---------
F#--0-0-0-7-3-5-5-5-8-7---------
B --0-0-0-7-3-5-5-5-8-7---------

End on
C#------------------------------
G#------------------------------
E ------------------------------
B --0-0-0-7-3-1-1-1-1-1---------
F#--0-0-0-7-3-1-1-1-1-1---------
B --0-0-0-7-3-1-1-1-1-1---------

Chorus
C#------------------------------
G#------------------------------
E ------------------------------
B --0-7-8-10-5-7-3-1------------
F#--0-7-8-10-5-7-3-1------------
B --0-7-8-10-5-7-3-1-----------

Bridge
C#------------------------------
G#------------------------------
E ----------5-5/8---------------
B --0-0-1-0-X-X-X---------------
F#--0-0-1-0-3-3/6---------------
B --0-0-1-0---------------------

3. Somewhere I Belong
Drop-d tuning 1/2 step down
Intro
--------------------------------
---7--7--7--10--7---------------
--------------------------------
--------------------------------
--------------------------------
--------------------------------

--------------------------------
--------------------------------
------7-------------------------
--9---7----7----5---------------
--9---5----7----5---------------
--9--------7----5---------------

Verse 
--------------------------------
---7--7--7--10--7---------------
--------------------------------
--------------------------------
--------------------------------
--------------------------------
pm..........
--------------------------------
--------------------------------
--------------------------------
---9--9--9--9-------------------
--------------------------------
--------------------------------
Chorus
--------------------------------
--------------------------------
------7-------------------------
--9---7---5----2----------------
--9---5---5----2----------------
--9-------5----2----------------

Bridge
-----------------------------------
-----------------------------------
-----11------11------11------------
-9-9-X---5-5-X---7-7-X---2-2—0h2---
-9-9-9---5-5-9---7-7-9---2-2-----4-
-9-9-----5-5-----7-7-----2-2-------

-----------------------------------
-----------------------------------
-----11------14------11------------
-9-9-X---5-5-X---7-7-X---2-2—0h2---
-9-9-9---5-5-12--7-7-9---2-2-----4-
-9-9-----5-5-----7-7-----2-2-------

End pm........
--------------------------------
--------------------------------
--------------------------------
--9--9--9--9--9-----------------
--9-----------------------------
--9-----------------------------

4. Lying from you Drop-d tuning
Intro

Pm.............
-------------------------------
-------------------------------
-------------------------------
--2---2---2---2----------------
--2---2---2---2----------------
--2---2---2---2----------------

--------------------------------
--------------------------------
--------------------------------
--0-2-1-1-0-3-2-0-1-0/6---------
--0-2-1-1-0-3-2-0-1-0/6---------
--0-2-1-1-0-3-2-0-1-0/6---------

Verse 
--------------------------------
--------------------------------
--------------------------------
-2-2---5-5----0--0--0--0--------
-2-2---5-5----0--0--0--0--------
-2-2---5-5----0--0--0--0--------

4th time
--------------------------------
--------------------------------
--------------------------------
-2-2---5-5---7-7----------------
-2-2---5-5---7-7----------------
-2-2---5-5---7-7----------------

Chorus 
---------------------------------------------------------
---------------------------------------------------------
-----11-11-11-7-7-7-9-9-9----------------11-11-11-7-7-7--
-0-2-X--X--X--X-X-X-X-X-X--5-1-0-0h1-0-2-X--X--X--X-X-X--
-0-2-9--9--9--5-5-5-7-7-7--5-1-0-0h1-0-2-9--9--9--5-5-5--
-0-2-----------------------5-1-0-0h1-0-2-----------------

---------------------------------------------------------
---------------------------------------------------------
-9-9-9----------------11-11-11-7-7-7-9-9-9---------------
-X-X-X-7--1-0-0h1-0-2-X--X--X--X-X-X-X-X-X-5-1-0-0h1-0-2-
-7-7-7-7--1-0-0h1-0-2-9--9--9--5-5-5-7-7-7-5-1-0-0h1-0-2-
-------7--1-0-0h1-0-2----------------------5-1-0-0h1-0-2-

---------------------------------------------------------
---------------------------------------------------------
-11-11-11-7-7-7-9-9-9------------------------------------
-X--X--X--X-X-X-X-X-X--7--0------------------------------
-9--9--9--5-5-5-7-7-7--7--0------------------------------
-----------------------7--0------------------------------

5. Hit the floor
Intro              4th time 
--------------------------------
--------------------------------
--------------------------------
---------------------0-8-8-8-7--
---------------------0-8-8-8-7--
-0-4-0-1-1-1-0-------0-8-8-8-7—

--------------------------------
--------------------------------
--------------------------------
-0-4-0-1-1-1-0---0-8-8-8-7------
-0-4-0-1-1-1-0---0-8-8-8-7------
-0-4-0-1-1-1-0---0-8-8-8-7------

Verse              8th time 
--------------------------------
--------------------------------
--------------------------------
---------------------0-8-8-8-7--
---------------------0-8-8-8-7--
-0-4-0-1-1-1-0-------0-8-8-8-7—-

Chorus
--------------------------------
--------------------------------
--------------------------------
-0-4-0-1-1-1-0---0-8-8-8-7------
-0-4-0-1-1-1-0---0-8-8-8-7------
-0-4-0-1-1-1-0---0-8-8-8-7------

Bridge
--------------------------------
--------------------------------
--------------------------------
--0--0---0---3------------------
--0--0---0---3------------------
--0--0---0---3------------------

6. Easier to run-drop-d tuning
Intro 
-----------------------------------------------
-----------------------------------------------
--------------11----11----10-------------------
----13----8----------------------8----6--------
-----------------------------------------------
-----------------------------------------------


Chorus
-----------------------------------------------
-----------------------------------------------
-----8-----------------------------------------
-----8----4----6----9--------------------------
-----6----4----6----9--------------------------
----------4----6----9--------------------------


Verse
-----------------------------------------------
-----------------------------------------------
--------------11----11----10-------------------
----13----8----------------------8----6--------
-----------------------------------------------
-----------------------------------------------


Bridge
-----------------------------------------------
-----------------------------------------------
-----------------------------------------------
----9----11----8----6----9----11----11---------
----9----11----8----6----9----11----11---------
----9----11----8----6----9----11----11---------


7. Faint drop-d tuning

Intro/Verse (it’s on a violin but here is the guitar part) 
-22/24-----15-17---15/10—15/10-15/10-
-------------------------------------
-------------------------------------
-------------------------------------
-------------------------------------
-------------------------------------

Chorus-guitar 1
--------------------------------
--------------------------------
--------------------------------
-0---3---8---5---7---3---0------
-0---3---8---5---7---3---0------
-0---3---8---5---7---3---0------

Chorus-guitar 2
---------------------------------
---------------------------------
-7-7-7-7-14-12-12-12-12-14-10-10-
-X-X-X-X-X--X--X--X--X--X--X--X--
-5-5-5-5-12-10-10-10-10-12-8--8--
---------------------------------

Bridge
--------------------------------
--------------------------------
--------------------------------
-0-8-7-0-3-0-0-0-8-7-0-3-0-8----
-0-8-7-0-3-0-0-0-8-7-0-3-0-8----
-0-8-7-0-3-0-0-0-8-7-0-3-0-8----

8. Figure .09
Intro
-----------------------------------------------------------
-----------------------------------------------------------
-----------------------------------------------------------
-----------------------------------------------------------
----------8----------8----------8----5h6-5h6---5h6---------
----12--0------12--0------12--0----------------------------


-----------------------------------------------------------
-----------------------------------------------------------
-----------------------------------------------------------
-------------------------------------0h1-1-1-1--0h1--------
----------8----------8----------8----0h1-1-1-1--0h1--------
----12--0------12--0------12--0------0h1-1-1-1--0h1--------


Riff -1
-----------------------------------------------------------
-----------------------------------------------------------
-----------------------------------------------------------
--0--12----3---0--12---3---0--12-----3---0h1-1-1-1--0h1----
--0--12----3---0--12---3---0--12-----3---0h1-1-1-1--0h1----
--0--12----3---0--12---3---0--12-----3---0h1-1-1-1--0h1----


Verse
-----------------------------------------------------------
-----------------------------------------------------------
-----------------------------------------------------------
--0--12-------0-0--12--------0-0--12-------0h1-1-1-1--0h1--
--0--12-------0-0--12--------0-0--12-------0h1-1-1-1--0h1--
--0--12-------0-0--12--------0-0--12-------0h1-1-1-1--0h1--


Riff -1
-----------------------------------------------------------
-----------------------------------------------------------
-----------------------------------------------------------
--0--12----3---0--12---3---0--12-----3---0h1-1-1-1--0h1----
--0--12----3---0--12---3---0--12-----3---0h1-1-1-1--0h1----
--0--12----3---0--12---3---0--12-----3---0h1-1-1-1--0h1----


Pre - Chorus
-----------------------------------------------------------
-----------------------------------------------------------
-----------------------------------------------------------
-----------------------------------------------------------
----------8----------8----------8--------------------------
----12--0------12--0------12--0----------------------------

Chorus
-----------------------------------------------------------
-----------------------------------------------------------
-----------------------------------------------------------
--0-0-0-0--8-8-8-8--3-3-3-3--5-5--7-7----------------------
--0-0-0-0--8-8-8-8--3-3-3-3--5-5--7-7----------------------
--0-0-0-0--8-8-8-8--3-3-3-3--5-5--7-7----------------------


Post - Chorus
-----------------------------------------------------------
-----------------------------------------------------------
-----------------------------------------------------------
--0-0-0-0--8-8-8-8--3-3-3-3--5-5--7-7--1-1-1-1-1-1-1-1-1-1-
--0-0-0-0--8-8-8-8--3-3-3-3--5-5--7-7--1-1-1-1-1-1-1-1-1-1-
--0-0-0-0--8-8-8-8--3-3-3-3--5-5--7-7--1-1-1-1-1-1-1-1-1-1-


Pre - Bridge
-----------------------------------------------------------
-----------------------------------------------------------
-----------------------------------------------------------
-----------------------------------------------------------
----------8----------8----------8----5h6-5h6---5h6---------
----12--0------12--0------12--0----------------------------


-----------------------------------------------------------
-----------------------------------------------------------
-----------------------------------------------------------
-----------------------------------------------------------
----------8----------8----------8--------------------------
----12--0------12--0------12--0----------------------------


Bridge
-----------------------------------------------------------
-----------------------------------------------------------
-----------------------------------------------------------
--1--0--x-x-x--0-2-3---4----1--0--x-x-x--0-2-3---0---------
--1--0--x-x-x--0-2-3--------1--0--x-x-x--0-2-3-------------
--1--0--x-x-x--0-2-3--------1--0--x-x-x--0-2-3-------------


-----------------------------------------------------------
-----------------------------------------------------------
-----------------------------------------------------------
--1--0--x-x-x--0-2-3---4----1--0--x-x-x--0-2-3--x-x-x------
--1--0--x-x-x--0-2-3--------1--0--x-x-x--0-2-3--x-x-x------
--1--0--x-x-x--0-2-3--------1--0--x-x-x--0-2-3--x-x-x------

9. Breaking the Habit
--------------------------
--------------------------
--------------------------
-----13-13-10-----11-11-10
-8-8----------8-8---------
--------------------------


10. from the inside
Intro
---------------
---------------
-14-12-14-12-12
---------------
---------------
---------------

Chorus
----------------------------------
----------------------------------
----------------------------------
-----------------000-333-888-55-77
-----------------000-333-888-55-77
-12*-12*-12*-12*-000-333-888-55-77

Verse
----------------------------------
----------------------------------
-14-14-14-12-12-12-14-14-14-9-9-10
----------------------------------
----------------------------------
----------------------------------

Bridge A 
----------------
----------------
----------------
-000-000-000-111
-000-000-000-111
-000-000-000-111

Bridge B 
----------------------------------
----------------------------------
----------------------------------
-000-3-1-1-000-3-1-1-000-3-1-1-111
-000-3-1-1-000-3-1-1-000-3-1-1-111
-000-----1-000-----1-000-----1-111

Outro
----------------
----------------
----------------
-000-000-000-000
-000-000-000-000
-000-000-000-000


11. Nobody’s listening
B|---------|----------|
G|---------|----------|
D|-33--3-3-|-55---5-5-|
A|-33--3-3-|-55---5-5-|
E|-33--3-3-|-55---5-5-|

e|---------|--------|
B|---------|--------|
G|---------|--------|
D|-33--3-3-|-00--11-|
A|-33--3-3-|-00--11-|
E|-33--3-3-|-00--11-|

e|---------|---------|
B|---------|---------|
G|---------|---------|
D|-33--3-3-|-22--2-2-|
A|-33--3-3-|-22--2-2-|
E|-33--3-3-|-22--2-2-|

e|---------|--------|
B|---------|--------|
G|---------|--------|
D|-33--3-3-|-00--11-|
A|-33--3-3-|-00--11-|
E|-33--3-3-|-00--11-|

12. Session-dj stuff


13. Numb
Intro Part One
D||-10-13-10-15-18-17---------|
A||---------------------------|
F||---------------------------|
C||---------------------------|
G||---------------------------|
C||---------------------------|

Intro Part Two
D||-10-13-10-18-17-13---------|
A||---------------------------|
F||---------------------------|
C||---------------------------|
G||---------------------------|
C||---------------------------|

Verse
D||---------------------------|
A||---------------------------|
F||---------------------------|
C||-5---1---8---3-------------|
G||-5---1---8---3-------------|
C||-5---1---8---3-------------|

Verse Part2
D||----10-----10-----10-----10----|
A||-------------------------------|
F||-------------------------------|
C||-5------1------8------3--------|
G||-5------1------8------3--------|
C||-5------1------8------3--------|
Suggest correction
comments
print report bad tab
10 comments total. Showing first comments.
0 reply
Mosquitocoil 20 wrote on July 24 2003, 12:00 am

You've listed some songs in Drop B tuning, some in Drop C, others in standard E, one or two in Drop C#, and others you have listed any tuning...i highly doubt they'd switch tunings as much as you've written, just for one album...

get the tuning right, and re-submit a more professional looking tab...come on, it IS a whole album tab after all

0 reply
run4fun832 90 wrote on July 24 2003, 12:00 am

very nice. better than all of the others who have attempted all the songs separately. that mosquito can go buzz off and annoy someone else. you've done it again!!!

0 reply
DiSTurBeD 69 30 wrote on July 24 2003, 12:00 am

It seems that u took some of the other peeps tabs (who worked real hard putting them together) and u jus copied and pasted it to make ur own...... common dude, but its good, linkin park does change their tuning but not that much

guest
You may want to rate the tab now too:
select rating
Wanna post a correction for this tab? Suggest correction