Oops, an error
Loading. Please wait.

Minutes To Midnight Bass Tab

version 1
version 1

Album

5,637 views 1 this week
13 commentsread comments
1 2 3 4 5
worth learning
x 11
add to favorites
launch autoscroll
font size
0
reset
guitar tuner
Autoscroll
slow
fast
+/-
esc
set tempo
stop
Help us to improve Ultimate-Guitar.com Take our survey!
×
Author
wake
tuning drop D
Intro: (when the drums come in)
G|---------------------------------------------------------------|
D|---------------------------------------------------------------|
A|---------------------------------------------------------------|
D|-2-22-22-222-2232-22-22-222-2232-22-22-222-2232-22-22-xx8-xx3--|

Verse:
G|---------------------------------------------------------------|
D|---------------------------------------------------------------|
A|---------------------------------------------------------------|
D|-2-22-22-222-2232-22-22-222-2230-00-00-000-0032-22-22-xx8-xx3--|

G|---------------------------------------------------------------|
D|---------------------------------------------------------------|
A|---------------------------------------------------------------|
D|-2-22-22-222-2232-22-22-222-2230-00-00-000-0032-22-22-xx8-xx3--|

Prechorus:
G|--------------------|
D|--------------------|
A|--------------------|
D|--5555555555555555--|

Chorus:
G|-----------------------------------|
D|-----------------------------------|
A|-------------------------00000000--|x3
D|-222222225555555500000000----------|

G|---------------------------------------------------------------|
D|---------------------------------------------------------------|
A|---------------------------------------------------------------|
D|-2222222255555555000000000000000077777777-xx8-xx3--------------|

Verse:
G|---------------------------------------------------------------|
D|---------------------------------------------------------------|
A|---------------------------------------------------------------|
D|-2-22-22-222-2232-22-22-222-2230-00-00-000-0032-22-22-xx8-xx3--|

G|---------------------------------------------------------------|
D|---------------------------------------------------------------|
A|---------------------------------------------------------------|
D|-2-22-22-222-2232-22-22-222-2230-00-00-000-0032-22-22-xx8-xx3--|

Prechorus:
G|--------------------|
D|--------------------|
A|--------------------|
D|--5555555555555555--|

Chorus:
G|-----------------------------------|
D|-----------------------------------|
A|-------------------------00000000--|x3
D|-222222225555555500000000----------|

G|---------------------------------------------------------------|
D|---------------------------------------------------------------|
A|---------------------------------------------------------------|
D|-2222222255555555000000000000000077777777-xx8-xx3--------------|

Bridge: (Guitar alone first)
G|---------------------------------------------------------------|
D|---------------------------------------------------------------|
A|---------------------------------------------------------------|x2
D|-0-1-2-0-4-3-0-6-5-0-1-2-0-2~---0-1-2-0-4-3-0-6-5-0-1-2-4-3-2--|

G|---------------------------------------------------------------|
D|---------------------------------------------------------------|
A|---------------------------------------------------------------|
D|-0-1-2-0-4-3-0-6-5-0-1-2-0-2-0-7-0-1-2-0-4-3-2-1---------------|

Interlude: (Guitar plays first)
G|---------------------------------------------------------------|
D|---------------------------------------------------------------|
A|---------------------------------------------------------------|
D|-2-22-22-222-2232-22-22-222-2232-22-22-222-2232----------------|

Chorus:
G|-----------------------------------|
D|-----------------------------------|
A|-------------------------00000000--|x3
D|-222222225555555500000000----------|

G|---------------------------------------------------------------|
D|---------------------------------------------------------------|
A|---------------------------------------------------------------|
D|-2222222255555555000000000000000077777777-xx8-xx3-2------------|

Leave Out All the Rest
Intro [without Bass]

Vers
G ----------------|
D --------3-------|
A 0---3-------5---| x2
E ----------------|

G --------|
D --------|
A 3---5---|
E --------|

Refrain
G ----------------|
D --------3-------|
A 0---3-------5---| x2
E ----------------|

Vers

Refrain

Bridge
G --------|
D --------|
A 0---3---| x2
E --------|

G --------|
D --------|
A 0---5---|
E --------|

Refrain

Outro [without Bass]

bleed it out
tuning drop D
Verse 1:(0:23)
G|-------------------------------------------------------------------------|
D|---------------------------44444444--------------------------------------|
A|55555555-77777777-------------------55555555-77777777-22222222-77774444--|
D|------------------44444444-----------------------------------------------|
Chorus:(0:38)
G|-------------------------------------------------------------------------|
D|-------------------------------------------------------------------------|
A|---------00004444-22222222-77774444-----------00004444-22222222-77774444-|
D|44444444---------------------------44444444----------------------------4\|
Verse 2:(1:05)
G|-------------------------------------------------------------------------|
D|---------------------------44444444--------------------------------------|
A|55555555-77777777-------------------55555555-77777777-22222222-77774444--|
D|------------------44444444-----------------------------------------------|
Chorus:(1:19) 
G|-------------------------------------------------------------------------|
D|-------------------------------------------------------------------------|
A|---------00004444-22222222-77774444-----------00004444-22222222-77774444-|
D|44444444-----------------------------44444444----------------------------|
Bridge:(1:33)
G|-------------------------------------------------------------------------|
D|-------------------------------------------------------------------------|
A|---------------------------------------------------------------------------|
D|0-0-00--0-0-2-2-22--2-2-0-0-00--0-0-2-2-24-2-2-0000--0--2222--2----------|
Chorus:(2:10)
G|-------------------------------------------------------------------------|
D|-------------------------------------------------------------------------|
A|---------00004444-22222222-77774444-----------00004444-22222222-77774444-|
D|44444444-----------------------------44444444----------------------------|

G|-------------------------------------------------------------------------|
D|-------------------------------------------------------------------------|
A|---------00004444-22222222-77774444-----------00004444-22222222-77774444-|
D|44444444-----------------------------44444444----------------------------|

shadow of the day

Verse 1:(0:13)
G|-----------------------------------|
D|-----------------------------------|
A|-----------------------------------|
E|44444444-66666666-0000000000000222-|

Repeat 4 more times

Chorus:(1:00)
G|-------------------------------------------------------------------------|
D|-------------------------------------------------------------------------|
A|22222222-44444444-------------------22222222-44444444--------------------|
E|------------------44444444-00000222-------------------44444444-00000222--|

G|-------------------------------------------------------------------------|
D|-------------------------------------------------------------------------|
A|22222222----------------------------22222222-44444444--------------------|
E|---------22222222-44444444-00000222-------------------44444444-00000222--|

Verse 2:(1:34)
G|-----------------------------------|
D|-----------------------------------|
A|-----------------------------------|
E|44444444-66666666-0000000000000222-|

Repeat 4 more times

Chorus:(2:16)
G|-------------------------------------------------------------------------|
D|-------------------------------------------------------------------------|
A|22222222-44444444-------------------22222222-44444444--------------------|
E|------------------44444444-00000222-------------------44444444-00000222--|

G|-------------------------------------------------------------------------|
D|-------------------------------------------------------------------------|
A|22222222----------------------------22222222-44444444--------------------|
E|---------22222222-44444444-00000222-------------------44444444-00000222--|

Bridge:(2:53)
G|-----------------------------------|
D|-----------------------------------|
A|-----------------------------------|
E|44444444-66666666-0000000000000222-|

Repeat 1 more time

Chorus:(3:11)
G|-------------------------------------------------------------------------|
D|-------------------------------------------------------------------------|
A|22222222----------------------------22222222-44444444--------------------|
E|---------22222222-44444444-00000222-------------------44444444-00000222--|

G|-------------------------------------------------------------------------|
D|-------------------------------------------------------------------------|
A|22222222-44444444-------------------22222222-44444444--------------------|
E|------------------44444444-00000222-------------------44444444-00000222--|

G|-------------------------------------------------------------------------|
D|-------------------------------------------------------------------------|
A|22222222----------------------------22222222-44444444------------------2~|
E|---------22222222-44444444-00000222-------------------44444444-00000222--|


what ive done

Intro(starts with bass drum)
G|--------------------------------|
D|--------------------------------|
A|--------1---------------3-------|
E|3---------------1---------------|

G|--------------------------------|
D|--------------------------------|  2x
A|--------11111111--------33333333|
E|33333333--------11111111--------|

G|----------------|
D|----------------|
A|----------------|
E|3---------------|

1.Vers
G|--------------------------------|
D|--------------------------------|   2x
A|--------1-----------------------| 
E|3---------------1---------------|

G|--------------------------------|
D|--------------------------------|
A|6-------------------------------|
E|----------------3---------------|

1.Chorus
G|--------------------------------|
D|--------------------------------|  2x
A|--------11111111--------33333333|
E|33333333--------11111111--------|

2.Vers
G|--------------------------------|
D|--------------------------------|   2x
A|--------1-----------------------| 
E|3---------------1---------------|

G|--------------------------------|
D|--------------------------------|
A|6-------------------------------|
E|----------------3---------------|

2.Chorus
G|--------------------------------|
D|--------------------------------| 
A|--------11111111--------33333333|
E|33333333--------11111111--------|

G|--------------------------------|
D|--------------------------------|  
A|--------11111111--------33335555|
E|33333333--------11111111--------|

G|--------|
D|--------|
A|66666666|
E|--------|

Bridge
G|--------------------------------|
D|--------------------------------| 
A|--------11111111--------33333333|
E|33333333--------11111111--------|

G|----------------------------------------|
D|----------------------------------------| 
A|--------11111111--------3333555566668888|
E|33333333--------11111111----------------|

3.Chorus (only guitar, vocals, drums)
G|--------------------------------|
D|--------------------------------|  
A|--------------------------------|
E|3-------------------------------|

G|--------------------------------|
D|--------------------------------|  
A|--------------------------------|
E|--------------------------------|

4.Chorus
G|--------------------------------|
D|--------------------------------|  4x
A|--------11111111--------33333333|
E|33333333--------11111111--------|

Ending
G|---------------|
D|---------------|
A|---------------|
E|3--------------|

no more sorrow
tuning drop D

Intro (00:14-00:43)
G|---------|
D|---------|
A|---------| X8
D|-1111111-|

Chorus (00:45-01:00)
G|----------------------------|
D|----------------------------|
A|-222222-111111--------------| X3
D|---------------111111111111-|

G|----------------------------|
D|----------------------------|
A|--------------111111--------|
D|-444444444444--------000000-|

Verse (01:00-01:28)
G|------------------------|
D|------------------------|
A|------------------------| X7
D|-1111111-1111-111111111-|

G|-------------------|
D|-------------------|
A|-------------------|
D|-1111111-1111-1111-|

Chorus (01:29-01:43)
G|----------------------------|
D|----------------------------|
A|-222222-111111--------------| X3
D|---------------111111111111-|

G|----------------------------|
D|----------------------------|
A|--------------111111--------|
D|-444444444444--------000000-|

Verse (01:43-02:08)
G|------------------------|
D|------------------------|
A|------------------------| X6
D|-1111111-1111-111111111-|

G|-------------------|
D|-------------------|
A|-------------------|
D|-1111111-1111-1111-|

Chorus (02:09-02:23)
G|----------------------------|
D|----------------------------|
A|-222222-111111--------------| X3
D|---------------111111111111-|

G|----------------------------|
D|----------------------------|
A|--------------111111--------|
D|-444444444444--------000000-|

Bridge (02:23-03:00)
G|------------------|
D|------------------|
A|------------------| X5
D|-0-1-0-3-1-0-1/55-|

G|---------|
D|---------|
A|---------| X6
D|-1111111-|

Chorus (03:03-03:32)
G|----------------------------|
D|----------------------------|
A|-222222-111111--------------| X3
D|---------------111111111111-|

G|----------------------------|
D|----------------------------|
A|--------------111111111111--|
D|-444444444444---------------|

G|----------------------------|
D|----------------------------|
A|-222222-111111--------------| X3
D|---------------111111111111-|

G|----------------------------|
D|----------------------------|
A|--------------111111--------|
D|-444444444444--------000000-|

outro (03:32-03:38)
G|------------------------|
D|------------------------|
A|------------------------|
D|-1111111-1111-111111111-|

G|-------------------|
D|-------------------|
A|-------------------|
D|-1111111-1111-1111-|

Suggest correction
What's this?
You can suggest a correction to this tab. Community and Mods will review your correction and vote to approve or reject it.
comments
print report bad tab
13 comments total. Showing first comments.
0 reply
KillerShroom 390 wrote on May 22 2007, 08:12 am

Thanks for asking before you stole my tab to no more sorrow......

0 reply
slimk 397 wrote on May 22 2007, 11:26 am

thanks for asking, before you took my bleed it out and shadow of the day

0 reply
slimk 397 wrote on May 22 2007, 11:26 am

doesnt even have the whole album tabbed, and some of my tabs were stolen

guest
You may want to rate the tab now too:
select rating
Please do not post tabs as comments. Select "correction" instead!