Oops, an error
Loading. Please wait.
10,894 views 15 this week
3 commentsread comments
1 2 3 4 5
x 3
add to favorites
×
Save as Personal and add changes to this tab that will be seen only by you. Learn more ›
×
You can save this tab as Personal to edit and correct it or add notes. All changes will be seen only by you. Learn more »
launch autoscroll
font size
0
reset
how to read this tab
guitar tuner
backing track
0:00
0:00
edit
Autoscroll
slow
fast
+/-
esc
set tempo
stop
Artist : Linkin Park
Song : New Divide
Album : Transformers : Revenge Of The Fallen
Tabbed by : Emy351

My Youtube Channel: http://www.youtube.com/Emy019
Me playing this song: http://www.youtube.com/watch?v=kFUdDwxzQnY

Tunning : Db Ab Db Gb Bb Eb

Intro
|-------------|
|-------------|
|-----11------|
|-------------|
|-------------|
|-------------|


|-------------------------------------------------------------------------------------------------|
|-------------------------------------------------------------------------------------------------|
|-11-11-11-11-11-11-11-11-11-11-11-11-11-11-11-11-9--9--9--9--9--9--9--9--13-13-13-13-13-13-13-13-|
|-x--x--x--x--x--x--x--x--x--x--x--x--x--x--x--x--x--x--x--x--x--x--x--x--x--x--x--x--x--x--x--x--|
|-9--9--9--9--9--9--9--9--9--9--9--9--9--9--9--9--7--7--7--7--7--7--7--7--11-11-11-11-11-11-11-11-|
|-------------------------------------------------------------------------------------------------|

|-------------------------------------------------------------------------------------------------|
|-------------------------------------------------------------------------------------------------|
|-11-11-11-11-11-11-11-11-11-11-11-11-11-11-11-11-9--9--9--9--9--9--9--9--13-13-13-13-13-13-13-13-|
|-x--x--x--x--x--x--x--x--x--x--x--x--x--x--x--x--x--x--x--x--x--x--x--x--x--x--x--x--x--x--x--x--|
|-9--9--9--9--9--9--9--9--9--9--9--9--9--9--9--9--7--7--7--7--7--7--7--7--11-11-11-11-11-11-11-11-|
|-------------------------------------------------------------------------------------------------|

First Verse
|----------------|
|----------------|
|----11----------|
|----x-----------|
|----9-----------|
|----------------|

Pre-Chorus
|--------------|
|--------------|
|-----11~------|
|--------------|
|--------------|
|--------------|

Chorus
|-------------------------------------------------------------------------------------------------|
|-------------------------------------------------------------------------------------------------|
|-11-11-11-11-11-11-11-11-11-11-11-11-11-11-11-11-13-13-13-13-13-13-13-13-11-11-11-11-11-11-11-11-|
|-x--x--x--x--x--x--x--x--x--x--x--x--x--x--x--x--x--x--x--x--x--x--x--x--x--x--x--x--x--x--x--x--|
|-9--9--9--9--9--9--9--9--9--9--9--9--9--9--9--9--11-11-11-11-11-11-11-11-9--9--9--9--9--9--9--9--|
|-------------------------------------------------------------------------------------------------|

|-------------------------------------------------------------------------------------------------|
|-------------------------------------------------------------------------------------------------|
|-11-11-11-11-11-11-11-11-9--9--9--9--9--9--9--9--13-13-13-13-13-13-13-13-14-14-14-14-13-13-13-13-|
|-x--x--x--x--x--x--x--x--x--x--x--x--x--x--x--x--x--x--x--x--x--x--x--x--x--x--x--x--x--x--x--x--|
|-9--9--9--9--9--9--9--9--7--7--7--7--7--7--7--7--11-11-11-11-11-11-11-11-12-12-12-12-11-11-11-11-|
|-------------------------------------------------------------------------------------------------|

|-------------------------------------------------------------------------------------------------|
|-------------------------------------------------------------------------------------------------|
|-11-11-11-11-11-11-11-11-9--9--9--9--9--9--9--9--13-13-13-13-13-13-13-13-11-11-11-11-11-11-11-11-|
|-x--x--x--x--x--x--x--x--x--x--x--x--x--x--x--x--x--x--x--x--x--x--x--x--x--x--x--x--x--x--x--x--|
|-9--9--9--9--9--9--9--9--7--7--7--7--7--7--7--7--11-11-11-11-11-11-11-11-9--9--9--9--9--9--9--9--|
|-------------------------------------------------------------------------------------------------|

|-------------------------------------------------------------------------------------------------|
|-------------------------------------------------------------------------------------------------|
|-14-14-14-14-14-14-14-14-14-14-14-14-14-14-14-14-16-16-16-16-16-16-16-16-16-16-16-16-16-16-16-16-|
|-x--x--x--x--x--x--x--x--x--x--x--x--x--x--x--x--x--x--x--x--x--x--x--x--x--x--x--x--x--x--x--x--|
|-12-12-12-12-12-12-12-12-12-12-12-12-12-12-12-12-14-14-14-14-14-14-14-14-14-14-14-14-14-14-14-14-|
|-------------------------------------------------------------------------------------------------|

Post-Chorus
|-------------------------------------------------------------------------------------------------|
|-------------------------------------------------------------------------------------------------|
|-11-11-11-11-11-11-11-11-11-11-11-11-11-11-11-11-9--9--9--9--9--9--9--9--13-13-13-13-13-13-13-13-|
|-x--x--x--x--x--x--x--x--x--x--x--x--x--x--x--x--x--x--x--x--x--x--x--x--x--x--x--x--x--x--x--x--|
|-9--9--9--9--9--9--9--9--9--9--9--9--9--9--9--9--7--7--7--7--7--7--7--7--11-11-11-11-11-11-11-11-|
|-------------------------------------------------------------------------------------------------|

Second Verse
|----------------|
|----------------|
|----11----------|
|----x-----------|
|----9-----------|
|----------------|


Pre-Chorus
|--------------|
|--------------|
|-----11~------|
|--------------|
|--------------|
|--------------|

Chorus
|-------------------------------------------------------------------------------------------------|
|-------------------------------------------------------------------------------------------------|
|-11-11-11-11-11-11-11-11-11-11-11-11-11-11-11-11-13-13-13-13-13-13-13-13-11-11-11-11-11-11-11-11-|
|-x--x--x--x--x--x--x--x--x--x--x--x--x--x--x--x--x--x--x--x--x--x--x--x--x--x--x--x--x--x--x--x--|
|-9--9--9--9--9--9--9--9--9--9--9--9--9--9--9--9--11-11-11-11-11-11-11-11-9--9--9--9--9--9--9--9--|
|-------------------------------------------------------------------------------------------------|

|-------------------------------------------------------------------------------------------------|
|-------------------------------------------------------------------------------------------------|
|-11-11-11-11-11-11-11-11-9--9--9--9--9--9--9--9--13-13-13-13-13-13-13-13-14-14-14-14-13-13-13-13-|
|-x--x--x--x--x--x--x--x--x--x--x--x--x--x--x--x--x--x--x--x--x--x--x--x--x--x--x--x--x--x--x--x--|
|-9--9--9--9--9--9--9--9--7--7--7--7--7--7--7--7--11-11-11-11-11-11-11-11-12-12-12-12-11-11-11-11-|
|-------------------------------------------------------------------------------------------------|



Bridge
|-------------------------------------------------------------------------------------------------|
|-------------------------------------------------------------------------------------------------|
|-11-11-11-11-11-11-11-11-11-11-11-11-11-11-11-11-9--9--9--9--9--9--9--9--13-13-13-13-13-13-13-13-|
|-x--x--x--x--x--x--x--x--x--x--x--x--x--x--x--x--x--x--x--x--x--x--x--x--x--x--x--x--x--x--x--x--|
|-9--9--9--9--9--9--9--9--9--9--9--9--9--9--9--9--7--7--7--7--7--7--7--7--11-11-11-11-11-11-11-11-|
|-------------------------------------------------------------------------------------------------|

|-------------------------------------------------------------------------------------------------|
|-------------------------------------------------------------------------------------------------|
|-11-11-11-11-11-11-11-11-11-11-11-11-11-11-11-11-9--9--9--9--9--9--9--9--13-13-13-13-13-13-13-13-|
|-x--x--x--x--x--x--x--x--x--x--x--x--x--x--x--x--x--x--x--x--x--x--x--x--x--x--x--x--x--x--x--x--|
|-9--9--9--9--9--9--9--9--9--9--9--9--9--9--9--9--7--7--7--7--7--7--7--7--11-11-11-11-11-11-11-11-|
|-------------------------------------------------------------------------------------------------|

|-------------------------------------------------------------------------------------------------|
|-------------------------------------------------------------------------------------------------|
|-11-11-11-11-13-13-13-13-14-14-14-14-16-16-16-16-11-11-11-11-13-13-13-13-14-14-14-14-16-16-16-16-|
|-x--x--x--x--x--x--x--x--x--x--x--x--x--x--x--x--x--x--x--x--x--x--x--x--x--x--x--x--x--x--x--x--|
|-9--9--9--9--11-11-11-11-12-12-12-12-14-14-14-14-9--9--9--9--11-11-11-11-12-12-12-12-14-14-14-14-|
|-------------------------------------------------------------------------------------------------|

Final Chorus
|-------------------------------------------------------------------------------------------------|
|-------------------------------------------------------------------------------------------------|
|-11-11-11-11-11-11-11-11-11-11-11-11-11-11-11-11-13-13-13-13-13-13-13-13-11-11-11-11-11-11-11-11-|
|-x--x--x--x--x--x--x--x--x--x--x--x--x--x--x--x--x--x--x--x--x--x--x--x--x--x--x--x--x--x--x--x--|
|-9--9--9--9--9--9--9--9--9--9--9--9--9--9--9--9--11-11-11-11-11-11-11-11-9--9--9--9--9--9--9--9--|
|-------------------------------------------------------------------------------------------------|

|-------------------------------------------------------------------------------------------------|
|-------------------------------------------------------------------------------------------------|
|-11-11-11-11-11-11-11-11-9--9--9--9--9--9--9--9--13-13-13-13-13-13-13-13-14-14-14-14-13-13-13-13-|
|-x--x--x--x--x--x--x--x--x--x--x--x--x--x--x--x--x--x--x--x--x--x--x--x--x--x--x--x--x--x--x--x--|
|-9--9--9--9--9--9--9--9--7--7--7--7--7--7--7--7--11-11-11-11-11-11-11-11-12-12-12-12-11-11-11-11-|
|-------------------------------------------------------------------------------------------------|

|-------------------------------------------------------------------------------------------------|
|-------------------------------------------------------------------------------------------------|
|-11-11-11-11-11-11-11-11-9--9--9--9--9--9--9--9--13-13-13-13-13-13-13-13-11-11-11-11-11-11-11-11-|
|-x--x--x--x--x--x--x--x--x--x--x--x--x--x--x--x--x--x--x--x--x--x--x--x--x--x--x--x--x--x--x--x--|
|-9--9--9--9--9--9--9--9--7--7--7--7--7--7--7--7--11-11-11-11-11-11-11-11-9--9--9--9--9--9--9--9--|
|-------------------------------------------------------------------------------------------------|

|-------------------------------------------------------------------------------------------------|
|-------------------------------------------------------------------------------------------------|
|-14-14-14-14-14-14-14-14-14-14-14-14-14-14-14-14-16-16-16-16-16-16-16-16-16-16-16-16-16-16-16-16-|
|-x--x--x--x--x--x--x--x--x--x--x--x--x--x--x--x--x--x--x--x--x--x--x--x--x--x--x--x--x--x--x--x--|
|-12-12-12-12-12-12-12-12-12-12-12-12-12-12-12-12-14-14-14-14-14-14-14-14-14-14-14-14-14-14-14-14-|
|-------------------------------------------------------------------------------------------------|

Outro
|-------------------------------------------------------------------------------------------------|
|-------------------------------------------------------------------------------------------------|
|-11-11-11-11-11-11-11-11-11-11-11-11-11-11-11-11-9--9--9--9--9--9--9--9--13-13-13-13-13-13-13-13-|
|-x--x--x--x--x--x--x--x--x--x--x--x--x--x--x--x--x--x--x--x--x--x--x--x--x--x--x--x--x--x--x--x--|
|-9--9--9--9--9--9--9--9--9--9--9--9--9--9--9--9--7--7--7--7--7--7--7--7--11-11-11-11-11-11-11-11-|
|-------------------------------------------------------------------------------------------------|

|-------------------------------------------------------------------------------------------------|
|-------------------------------------------------------------------------------------------------|
|-11-11-11-11-11-11-11-11-11-11-11-11-11-11-11-11-9--9--9--9--9--9--9--9--13-13-13-13-13-13-13-13-|
|-x--x--x--x--x--x--x--x--x--x--x--x--x--x--x--x--x--x--x--x--x--x--x--x--x--x--x--x--x--x--x--x--|
|-9--9--9--9--9--9--9--9--9--9--9--9--9--9--9--9--7--7--7--7--7--7--7--7--11-11-11-11-11-11-11-11-|
|-------------------------------------------------------------------------------------------------|

Ending
|----------------|
|----------------|
|----11----------|
|----x-----------|
|----9-----------|
|----------------|
Suggest correction
Creating personal tab
Creating personal tab
You can edit any tab online and save it as your Personal.

You can edit, replace or remove any tab part or add personal notes – all changes will be seen only by you.

Personal tabs can be accessed anytime from any device, even offline.
Learn more »
Give kudos to tab author, rate the tab!
1 2 3 4 5
comments
print report bad tab
3 comments total.
0 reply
JimBonJovi 830 Jul 15, 2009 09:21 AM

I gave it a 3 for the time and effort you put in but there is already a tab of this and it's quite correct. This tune isn't a half step down either.

0 reply
kelektrik 30 Aug 19, 2009 08:45 AM

This is actually 100 correct. 5 stars

0 reply
Tomozaurus 230 Nov 27, 2009 04:47 PM

Stolen straight of ASTAT, but still 100%.

guest
You may want to rate the tab now too:
select rating
Wanna post a correction for this tab? Suggest correction