Oops, an error
Loading. Please wait.
7,164 views 3 this week
2 commentsread comments
1 2 3 4 5
x 4
add to favorites
×
Save as Personal and add changes to this tab that will be seen only by you. Learn more ›
×
You can save this tab as Personal to edit and correct it or add notes. All changes will be seen only by you. Learn more »
launch autoscroll
font size
0
reset
how to read this tab
guitar tuner
backing track
0:00
0:00
edit
Autoscroll
slow
fast
+/-
esc
set tempo
stop
Author
New Divide
Artist: Linkin Park
Album: Transformers, Revenge Of The Fallen Soundtrack

Tuning
Gtr I – (Eb Ab Db Gb Bb Eb) Light Distortion
Gtr II - (Eb Ab Db Gb Bb Eb) Heavy Distortion
Gtr III - (Eb Ab Db Gb Bb Eb) Heavy Distortion

Main Riff
    Q.      Q         Q.      Q         Q.      Q         Q.      Q
    Gtr I
||------------------|-----------------|-----------------|------------------||
||o-----------------|-----------------|-----------------|-----------------o||
||------------------|-----------------|-----------------|------------------||
||--7---------------|-11--------------|-14--------------|-11---------------||
||o---------9-------|---------9-------|---------14------|---------9-------o||
||------------------|-----------------|-----------------|------------------||

Intro
   Gtr I
(Plays main riff)
 
   E  E  E  E  E  E  E  E    E  E  E  E  E  E  E  E    E E E E E E E E   E  E  E  E  E  E  E  E
   Gtr II
||--------------------------|-------------------------|-----------------|--------------------------|
||o-------------------------|-------------------------|-----------------|-------------------------o|
||--11-11-11-11-11-11-11-11-|-11-11-11-11-11-11-11-11-|-9-9-9-9-9-9-9-9-|-13-13-13-13-13-13-13-13--|
||--------------------------|-------------------------|-----------------|--------------------------|
||o-9--9--9--9--9--9--9--9--|-9--9--9--9--9--9--9--9--|-7-7-7-7-7-7-7-7-|-11-11-11-11-11-11-11-11-o|
||--------------------------|-------------------------|-----------------|--------------------------|
|
|  Gtr III
||--------------------------|-------------------------|-----------------|--------------------------|
||o-------------------------|-------------------------|-----------------|-------------------------o|
||--------------------------|-2--2--2--2--2--2--2--2--|-----------------|-4--4--4--4--4--4--6--6---|
||--4--4--4--4--4--4--4--4--|-2--2--2--2--2--2--2--2--|-2-2-2-2-2-2-2-2-|-4--4--4--4--4--4--6--6---|
||o-4--4--4--4--4--4--4--4--|-0--0--0--0--0--0--0--0--|-2-2-2-2-2-2-2-2-|-2--2--2--2--2--2--4--4--o|
||--2--2--2--2--2--2--2--2--|-------------------------|-0-0-0-0-0-0-0-0-|--------------------------|

  W
 Gtrs I & II
|------------------||
|------------------||
|------------------||
|-4----------------||
|-4----------------||
|-2----------------||

Verse I
 Gtrs I, II & II
(Play nothing)

Chorus
   E  E  E  E  E  E  E  E    E  E  E  E  E  E  E  E    E E E E E E E E   E  E  E  E  E  E  E  E
   Gtr II
                                                                                                   x2
||--------------------------|-------------------------|-----------------|--------------------------|
||o-------------------------|-------------------------|-----------------|-------------------------o|
||--11-11-11-11-11-11-11-11-|-11-11-11-11-11-11-11-11-|-9-9-9-9-9-9-9-9-|-13-13-13-13-13-13-13-13--|
||--------------------------|-------------------------|-----------------|--------------------------|
||o-9--9--9--9--9--9--9--9--|-9--9--9--9--9--9--9--9--|-7-7-7-7-7-7-7-7-|-11-11-11-11-11-11-11-11-o|
||--------------------------|-------------------------|-----------------|--------------------------|
|
|  Gtr III
||--------------------------|-------------------------|-----------------|--------------------------|
||o-------------------------|-------------------------|-----------------|-------------------------o|
||--------------------------|-2--2--2--2--2--2--2--2--|-----------------|-4--4--4--4--4--4--6--6---|
||--4--4--4--4--4--4--4--4--|-2--2--2--2--2--2--2--2--|-2-2-2-2-2-2-2-2-|-4--4--4--4--4--4--6--6---|
||o-4--4--4--4--4--4--4--4--|-0--0--0--0--0--0--0--0--|-2-2-2-2-2-2-2-2-|-2--2--2--2--2--2--4--4--o|
||--2--2--2--2--2--2--2--2--|-------------------------|-0-0-0-0-0-0-0-0-|--------------------------|

(Play x1 more in chorus I)
Post-Chorus
  E  E  E  E  E  E  E  E    E  E  E  E  E  E  E  E
 Gtr II
|-------------------------|-------------------------|
|-------------------------|-------------------------|
|-14-14-14-14-14-14-14-14-|-14-14-14-14-14-14-14-14-|
|-------------------------|-------------------------|
|-12-12-12-12-12-12-12-12-|-12-12-12-12-12-12-12-12-|
|-------------------------|-------------------------|
|
| Gtr III
|-------------------------|-------------------------|
|-------------------------|-------------------------|
|-------------------------|-------------------------|
|-7--7--7--7--7--7--7--7--|-7--7--7--7--7--7--7--7--|
|-7--7--7--7--7--7--7--7--|-7--7--7--7--7--7--7--7--|
|-5--5--5--5--5--5--5--5--|-5--5--5--5--5--5--5--5--|

  E  E  E  E  E  E  E  E    E  E  E  E  E  E  E  E
 Gtr II
|-------------------------|-------------------------|
|-------------------------|-------------------------|
|-18-18-18-18-18-18-18-18-|-18-18-18-18-18-18-18-18-|
|-------------------------|-------------------------|
|-16-16-16-16-16-16-16-16-|-16-16-16-16-16-16-16-16-|
|-------------------------|-------------------------|
|
| Gtr III
|-------------------------|-------------------------||
|-------------------------|-------------------------||
|-------------------------|-------------------------||
|-9--9--9--9--9--9--9--9--|-9--9--9--9--9--9--9--9--||
|-9--9--9--9--9--9--9--9--|-9--9--9--9--9--9--9--9--||
|-7--7--7--7--7--7--7--7--|-7--7--7--7--7--7--7--7--||

Pre-Verse
 Gtrs I, II & III
(Repeat intro)

Verse II
 Gtrs I, II & III
(Play nothing)

Chorus II
 Gtrs II & III
(Repeat chorus I)

Synth Solo
 Gtrs I, II & III
(Play nothing)

Breakdown
  E E E     E       E   E     E       E E E     E       E E E
 Gtrs II, III
|-----------------|-----------------|-----------------|-----------------|
|-----------------|-----------------|-----------------|-----------------|
|-----------------|-----------------|-----------------|-----------------|
|-4-4-4-----4-----|-4---4-----4-----|-4-4-4-----4-----|-4-4-4-----------|
|-4-4-4-----4-----|-4---4-----4-----|-4-4-4-----4-----|-4-4-4-----------|
|-2-2-2-----2-----|-2---2-----2-----|-2-2-2-----2-----|-2-2-2-----------|

Bridge
 Gtrs II, III
(Repeat chorus I & post-chorus)

Chorus III
 Gtrs II, III
(Repeat chorus I) 

Outro
 Gtrs I, II, III
(Repeat intro)

            
            
Suggest correction
Creating personal tab
Creating personal tab
You can edit any tab online and save it as your Personal.

You can edit, replace or remove any tab part or add personal notes – all changes will be seen only by you.

Personal tabs can be accessed anytime from any device, even offline.
Learn more »
comments
print report bad tab
2 comments total.
-1 reply
goneforeverxxx 30 May 23, 2009 07:57 AM

dude u must suck at makin tabs this is wrong its on the 8th fret on the 5th string not 9

0 reply
Tomozaurus 230 May 26, 2009 08:01 PM

No, its 9th. In standard or dropped D its 8th, in 1/2 step down, its 9th.

guest
You may want to rate the tab now too:
select rating
Wanna post a correction for this tab? Suggest correction