Oops, an error
Loading. Please wait.
12,514 views 120 this week
7 commentsread comments
1 2 3 4 5
x 4
add to favorites
×
Save as Personal and add changes to this tab that will be seen only by you. Learn more ›
×
You can save this tab as Personal to edit and correct it or add notes. All changes will be seen only by you. Learn more »
launch autoscroll
font size
0
reset
how to read this tab
guitar tuner
backing track
0:00
0:00
edit
Autoscroll
slow
fast
+/-
esc
set tempo
stop
Author
Linkin Park
New Divide

[Intro- Repeat](2x)
e|---------------------------------------------------------------------------|
B|---------------------------------------------------------------------------|
G|---------------------------------------------------------------------------|
D|---------10------14------10------------------------------------------------|
A|--11-----------------14----------------------------------------------------|
E|-----13------13--------------13--------------------------------------------|

[Chorus- Repeat](2x)
e|---------------------------------------------------------------------------|
B|---------------------------------------------------------------------------|
G|--10-------8-------13------------------------------------------------------|
D|--10-------8-------13------------------------------------------------------|
A|--8(16x)---6(8x)---11(8x)--------------------------------------------------|
E|---------------------------------------------------------------------------|

[Verse]
(No guitar but if you want you can play the power chords one time (giving the 
chords the correct amount of beats because the 8th fret power chord had twice as many beats 
the 6th fret and the 11th fret)

[Repeat this](4x)
e|-------------------------------------------------------------------------|
B|-------------------------------------------------------------------------|
G|-------------------------------------------------------------------------|
D|----------6--8-8b9-6--------6--8-8b9-6-----------------------------------|
A|--8(short)-----------8-6-8-----------------------------------------------|
E|-------------------------------------------------------------------------|

(I also want to mention that when the vocals go-"And your voice was all I heard...That I 
what I deserve" that the guitar does this)
e|---------------------------------------------------------------------------|
B|---------------------------------------------------------------------------|
G|--6----8----10---13--------------------------------------------------------|
D|--x----x----x----x---------------------------------------------------------|
A|--4(4x)6(4x)8(4x)11(4x)----------------------------------------------------|
E|---------------------------------------------------------------------------|
(Repeat - 2x)

(Now for the soft chorus just palm mute your guitar to the same rhythm as it would be if 
was heavy.)

[Outro]
(Same thing as intro)

************************************

| b  Bend
| x  Dead note

************************************
Suggest correction
Creating personal tab
Creating personal tab
You can edit any tab online and save it as your Personal.

You can edit, replace or remove any tab part or add personal notes – all changes will be seen only by you.

Personal tabs can be accessed anytime from any device, even offline.
Learn more »
comments
print report bad tab
7 comments total. Showing first comments.
0 reply
goneforeverxxx 30 May 27, 2009 01:34 PM

Sorry guys I made a mistake in the intro it goes like this:
E--------------------------------------------------------------------
B--------------------------------------------------------------------
G--------------------------------------------------------------------
D---------10------13------10-----------------------------------------
A--11-----------------13---------------------------------------------
E-----13------13--------------13-------------------------------------

0 reply
goneforeverxxx 30 May 30, 2009 03:08 AM

and u guys can figure out the structure for the song

0 reply
Cookiezzz182 20 Jun 22, 2009 04:33 PM

now this is a much better tab :) exactly what ive been looking for :D

but 1 question...how many guitars are you using?

guest
You may want to rate the tab now too:
select rating
Wanna post a correction for this tab? Suggest correction