Oops, an error
Loading. Please wait.
6,526 views 15 this week
3 commentsread comments
1 2 3 4 5
2 more votes to show rating
add to favorites
×
Save as Personal and add changes to this tab that will be seen only by you. Learn more ›
×
You can save this tab as Personal to edit and correct it or add notes. All changes will be seen only by you. Learn more »
launch autoscroll
font size
0
reset
how to read this tab
guitar tuner
backing track
0:00
0:00
edit
Autoscroll
slow
fast
+/-
esc
set tempo
stop
Author
Tabbed by Emy
Email : EmysArt@hotmail.com


Linkin Park - "New Divide" > http://www.youtube.com/watch?v=2t_g1m_nVus

Standard tunning my way to play it on standard tuning

Intro

E|-------------------------------------|
B|-------------------------------------|
G|-------------------------------------|
D|-6--3-----10--6-----13-–10-----10----|
A|-----------------------------------8-|
E|-------------------------------------|   x2


E|---------------------------------------------------|
B|---------------------------------------------------|
G|-------------------------------8-------------------|
D|----3--------------6-----------8--(x8)----8--------|
A|----3--(x8)--------6--(x8)-----6----------8--(x8)--|
E|----1--------------4----------------------6--------|  x2


Verse : no guitar

then “get what I deserved” play :
|-----------------------------------------------------------------|
|-----------------------------------------------------------------|
|-----10--(x 12)-Palm mute and slowly release then----------------|
|-----------------play with no PM (like your building it up)------|
|-----------------------------------------------------------------|
|-----------------------------------------------------------------|


Chorus

E|---------------------------------------------------|
B|---------------------------------------------------|
G|-------------------------------8-------------------|
D|----3--------------6-----------8--(x8)----8--------|
A|----3--(x8)--------6--(x8)-----6----------8--(x8)--|
E|----1--------------4----------------------6--------|  x2

+ (after the 2nd time)

|--------------------------------------------------|
|--------------------------------------------------|
|--------------------------------------------------|
|--10-----------13---------------------------------|
|--10--(x16)----13--(x16)--------------------------|
|--8------------11---------------------------------|


intro Verse 2

E|---------------------------------------------------|
B|---------------------------------------------------|
G|-------------------------------8-------------------|
D|----3--------------6-----------8--(x8)----8--------|
A|----3--(x8)--------6--(x8)-----6----------8--(x8)--|
E|----1--------------4----------------------6--------|  x2


verse 2 : no guitar

then “get what I deserved” play :
|---------------------|
|---------------------|
|-----10--------------|
|---------------------|
|---------------------|
|---------------------|


Chorus 2

E|---------------------------------------------------|
B|---------------------------------------------------|
G|-------------------------------8-------------------|
D|----3--------------6-----------8--(x8)----8--------|
A|----3--(x8)--------6--(x8)-----6----------8--(x8)--|
E|----1--------------4----------------------6--------|


 
///untab part/// with scratching at 2:39 - 2:52


Bridge "and every loss..."
 

E|---------------------------------------------------|
B|---------------------------------------------------|
G|-------------------------------8-------------------|
D|----3--------------6-----------8--(x8)----8--------|
A|----3--(x8)--------6--(x8)-----6----------8--(x8)--|
E|----1--------------4----------------------6--------|  x2

+ (after the 2nd time)

|--------------------------------------------------|
|--------------------------------------------------|
|--------------------------------------------------|
|--11-----------13---------------------------------|
|--11--(x16)----13--(x16)--------------------------|
|--9------------11---------------------------------|


Outro (acapella)


E|---------------------------------------------------|
B|---------------------------------------------------|
G|-------------------------------8-------------------|
D|----3--------------6-----------8--(x8)----8--------|
A|----3--(x8)--------6--(x8)-----6----------8--(x8)--|
E|----1--------------4----------------------6--------|  x2


Chorus 


E|---------------------------------------------------|
B|---------------------------------------------------|
G|-------------------------------8-------------------|
D|----3--------------6-----------8--(x8)----8--------|
A|----3--(x8)--------6--(x8)-----6----------8--(x8)--|
E|----1--------------4----------------------6--------|  x2



E|---------------------------------------------------|
B|---------------------------------------------------|
G|-------------------------------8-------------------|
D|----3--------------6-----------8--(x8)----8--------|
A|----3--(x8)--------6--(x8)-----6----------8--(x8)--|
E|----1--------------4----------------------6--------|  x2


End with the intro part

E|-------------------------------------|
B|-------------------------------------|
G|-------------------------------------|
D|-6--3-----10--6-----13-–10-----10----|
A|-----------------------------------8-|
E|-------------------------------------|   x2


Hope you enjoyed !!


            
            
Suggest correction
Creating personal tab
Creating personal tab
You can edit any tab online and save it as your Personal.

You can edit, replace or remove any tab part or add personal notes – all changes will be seen only by you.

Personal tabs can be accessed anytime from any device, even offline.
Learn more »
Give kudos to tab author, rate the tab!
1 2 3 4 5
comments
print report bad tab
3 comments total.
0 reply
goneforeverxxx 30 May 30, 2009 03:56 AM

this is one of the worst tabs ive seen

0 reply
Linkin_LP_Park 10 Jun 06, 2009 08:29 PM

Intro

E|-------------------------------------|
B|-------------------------------------|
G|---------------------8---------------|
D|-6--------10-----------–8------10----|
A|----8---------8--------------------8-|
E|-------------------------------------| x2

This seems Simpler and the second duo (D 10 and A 8) seems to sound better.

0 reply
Cookiezzz182 20 Jun 22, 2009 04:32 PM

wrong

guest
You may want to rate the tab now too:
select rating
Wanna post a correction for this tab? Suggest correction