Oops, an error
Loading. Please wait.

No More Sorrow tab

5,563 views 3 this week
3 commentsread comments
1 2 3 4 5
x 6
add to favorites
×
Save as Personal and add changes to this tab that will be seen only by you. Learn more ›
×
You can save this tab as Personal to edit and correct it or add notes. All changes will be seen only by you. Learn more »
launch autoscroll
font size
0
reset
how to read this tab
guitar tuner
backing track
0:00
0:00
edit
Autoscroll
slow
fast
+/-
esc
set tempo
stop
Title: No More Sorrow
Artist: Linkin Park
Album: Minutes To Midnight


Tuning: Drop D (D A D G B E) 


INTRO / VERSE(1)

Guitar 1
E|------------------------------------|
B|---------------11---9----11/12---11-|  x6
G|-8----10/11-------------------------|
D|------------------------------------|
A|------------------------------------|
D|------------------------------------|

Guitar 2
E|---------------|
B|---------------|   x4
G|---------------|
D|-1-1-1-1-1-1-1-|
A|-1-1-1-1-1-1-1-|
D|-1-1-1-1-1-1-1-|

                   . . . .  . . . . . . . . .
E|---------------|----------------------------|
B|---------------|----------------------------|   x4
G|---------------|----------------------------|
D|-1-1-1-1-1-1-1-|-1-1-1-1--1-1-1-1-1-1-1-1-1-|
A|-1-1-1-1-1-1-1-|-1-1-1-1--1-1-1-1-1-1-1-1-1-|
D|-1-1-1-1-1-1-1-|-1-1-1-1--1-1-1-1-1-1-1-1-1-|
                   . . . .  . . . . . . . . .

CHORUS(1)

Guitar 1
E|--------------|-----------------|      |----------|----------|
B|--------------|-----------------|  x3  |----------|----------|
G|-11-----10----|-8---------------|      |-8--------|-11--7----|
D|-x------x-----|-x---------------|      |-X--------|-X---X----|
A|-9------8-----|-6---------------|      |-6--------|-9---5----|
D|--------------|-----------------|      |----------|----------| 

Guitar 2
E|-----------------|-----------------|
B|-----------------|-----------------|  x3
G|-4-4-4-4-3-3-3-3-|-----------------|
D|-4-4-4-4-3-3-3-3-|-1-1-1-1-1-1-1-1-|
A|-2-2-2-2-1-1-1-1-|-1-1-1-1-1-1-1-1-|
D|-----------------|-1-1-1-1-1-1-1-1-|

E|-----------------|---------------|---------------|-----------------|
G|-----------------|---------------|---------------|-----------------|
G|-4-4-4-4-3-3-3-3-|---------------|---------------|-3-3-3-3---------|
D|-4-4-4-4-3-3-3-3-|-1-1-1-1-1-1-1-|-4-4-4-4-4-4-4-|-3-3-3-3-0-0-0-0-|
A|-2-2-2-2-1-1-1-1-|-1-1-1-1-1-1-1-|-4-4-4-4-4-4-4-|-1-1-1-1-0-0-0-0-|
D|-----------------|-1-1-1-1-1-1-1-|-4-4-4-4-4-4-4-|---------0-0-0-0-|


POST CHORUS(1) 
 
Guitars 1 & 2
E|---------------|----------------------------|
B|---------------|----------------------------|   x2
G|---------------|----------------------------|
D|-1-1-1-1-1-1-1-|-1-1-1-1--1-1-1-1-1-1-1-1-1-|
A|-1-1-1-1-1-1-1-|-1-1-1-1--1-1-1-1-1-1-1-1-1-|
D|-1-1-1-1-1-1-1-|-1-1-1-1--1-1-1-1-1-1-1-1-1-|
  

VERSE(2)

Guitar 1
E|------------------------------------|
B|---------------11---9----11/12---11-| x2
G|-8----10/11-------------------------|
D|------------------------------------|
A|------------------------------------|
D|------------------------------------|

E|---------------|------------------|
B|---------------|------------------|   x4
G|---------------|------------------|
D|-1-1-1-1-1-1-1-|-1-1-1-1--1-1-1-1-|
A|-1-1-1-1-1-1-1-|-1-1-1-1--1-1-1-1-|
D|-1-1-1-1-1-1-1-|-1-1-1-1--1-1-1-1-|

Guitar 2
  . . . . . . .   . . . .  . . . . . . . . .
E|---------------|----------------------------|
B|---------------|----------------------------|   x5
G|---------------|----------------------------|
D|-1-1-1-1-1-1-1-|-1-1-1-1--1-1-1-1-1-1-1-1-1-|
A|-1-1-1-1-1-1-1-|-1-1-1-1--1-1-1-1-1-1-1-1-1-|
D|-1-1-1-1-1-1-1-|-1-1-1-1--1-1-1-1-1-1-1-1-1-|
  . . . . . . .   . . . .  . . . . . . . . .
   . . . . . . .   . . . .  . . . . 
E|---------------|------------------|
B|---------------|------------------|   
G|---------------|------------------|
D|-1-1-1-1-1-1-1-|-1-1-1-1--1-1-1-1-|
A|-1-1-1-1-1-1-1-|-1-1-1-1--1-1-1-1-|
D|-1-1-1-1-1-1-1-|-1-1-1-1--1-1-1-1-|
   . . . . . . .   . . . .  . . . . 


--REPEAT CHORUS--


POST CHORUS(2)
 
Guitars 1 & 2
E|---------------|----------------------------|
B|---------------|----------------------------|  
G|---------------|----------------------------|
D|-1-1-1-1-1-1-1-|-1-1-1-1--1-1-1-1-1-1-1-1-1-|
A|-1-1-1-1-1-1-1-|-1-1-1-1--1-1-1-1-1-1-1-1-1-|
D|-1-1-1-1-1-1-1-|-1-1-1-1--1-1-1-1-1-1-1-1-1-|


--REPEAT VERSE(2) + CHORUS--


BRIDGE(1)

Guitars 1 & 2
  .  .  .  .  .  .  .
E|------------------------|
B|------------------------|  x5
G|------------------------|
D|-0--1--0--3--2--1--0--4-|
A|-0--1--0--3--2--1--0--4-|
D|-0--1--0--3--2--1--0--4-|
  .  .  .  .  .  .  .

BRIDGE(2)

Guitar 1
E|------------------------------------|
B|---------------11---9----11/12---11-| x3
G|-8----10/11-------------------------|
D|------------------------------------|
A|------------------------------------|
D|------------------------------------|

Guitar 2
E|---------------|
B|---------------|   x6
G|---------------|
D|-1-1-1-1-1-1-1-|
A|-1-1-1-1-1-1-1-|
D|-1-1-1-1-1-1-1-|


CHORUS(2)

Guitar 1
E|--------------|-----------------|      |----------|----------|
B|--------------|-----------------|  x3  |----------|----------|
G|-11-----10----|-8---------------|      |-8--------|-11-------|
D|-x------x-----|-x---------------|      |-X--------|-X--------|
A|-9------8-----|-6---------------|      |-6--------|-9--------|
D|--------------|-----------------|      |----------|----------| 

Guitar 2
E|-----------------|-----------------|
B|-----------------|-----------------|  x3
G|-4-4-4-4-3-3-3-3-|-----------------|
D|-4-4-4-4-3-3-3-3-|-1-1-1-1-1-1-1-1-|
A|-2-2-2-2-1-1-1-1-|-1-1-1-1-1-1-1-1-|
D|-----------------|-1-1-1-1-1-1-1-1-|

E|-----------------|---------------|---------------|-----------------|
G|-----------------|---------------|---------------|-----------------|
G|-4-4-4-4-3-3-3-3-|---------------|---------------|-3-3-3-3-3-3-3-3-|
D|-4-4-4-4-3-3-3-3-|-1-1-1-1-1-1-1-|-4-4-4-4-4-4-4-|-3-3-3-3-3-3-3-3-|
A|-2-2-2-2-1-1-1-1-|-1-1-1-1-1-1-1-|-4-4-4-4-4-4-4-|-1-1-1-1-1-1-1-1-|
D|-----------------|-1-1-1-1-1-1-1-|-4-4-4-4-4-4-4-|-----------------|


CHORUS(3)

Guitar 1
E|--------------|-----------------|      |----------|----------|
B|--------------|-----------------|  x3  |----------|----------|
G|-11-----10----|-8---------------|      |-8--------|-11-------|
D|-x------x-----|-x---------------|      |-X--------|-X--------|
A|-9------8-----|-6---------------|      |-6--------|-9--------|
D|--------------|-----------------|      |----------|----------| 

E|-----------------|-----------------|
B|-----------------|-----------------|  x3
G|-4-4-4-4-3-3-3-3-|-----------------|
D|-4-4-4-4-3-3-3-3-|-1-1-1-1-1-1-1-1-|
A|-2-2-2-2-1-1-1-1-|-1-1-1-1-1-1-1-1-|
D|-----------------|-1-1-1-1-1-1-1-1-|

E|-----------------|---------------|---------------|-----------------|
G|-----------------|---------------|---------------|-----------------|
G|-4-4-4-4-3-3-3-3-|---------------|---------------|-3-3-3-3---------|
D|-4-4-4-4-3-3-3-3-|-1-1-1-1-1-1-1-|-4-4-4-4-4-4-4-|-3-3-3-3-1-1-1-1-|
A|-2-2-2-2-1-1-1-1-|-1-1-1-1-1-1-1-|-4-4-4-4-4-4-4-|-1-1-1-1-1-1-1-1-|
D|-----------------|-1-1-1-1-1-1-1-|-4-4-4-4-4-4-4-|---------1-1-1-1-|

Guitar 3
E|------------------------------------|
B|---------------11---9----11/12---11-| x2
G|-8----10/11-------------------------|
D|------------------------------------|
A|------------------------------------|
D|------------------------------------|


OUTRO

Guitar 1
E|------------------------------------|
B|---------------11---9----11/12---11-| 
G|-8----10/11-------------------------|
D|------------------------------------|
A|------------------------------------|
D|------------------------------------|

Guitar 2
E|---------------|----------------------------|---------------|---------|
B|---------------|----------------------------|---------------|---------|  
G|---------------|----------------------------|---------------|---------|
D|-1-1-1-1-1-1-1-|-1-1-1-1--1-1-1-1-1-1-1-1-1-|-1-1-1-1-1-1-1-|-1-1-1-1-|
A|-1-1-1-1-1-1-1-|-1-1-1-1--1-1-1-1-1-1-1-1-1-|-1-1-1-1-1-1-1-|-1-1-1-1-|
D|-1-1-1-1-1-1-1-|-1-1-1-1--1-1-1-1-1-1-1-1-1-|-1-1-1-1-1-1-1-|-1-1-1-1-|

            
            
Suggest correction
Creating personal tab
Creating personal tab
You can edit any tab online and save it as your Personal.

You can edit, replace or remove any tab part or add personal notes – all changes will be seen only by you.

Personal tabs can be accessed anytime from any device, even offline.
Learn more »
comments
print report bad tab
3 comments total.
0 reply
Rerereborn 10 May 09, 2007 03:21 AM

wrong^^

0 reply
soothsayer80 10 May 04, 2008 05:00 PM

this is good

0 reply
guitarplayer457 10 Mar 23, 2011 04:30 PM

Better than the other tabs to this song

guest
You may want to rate the tab now too:
select rating
Wanna post a correction for this tab? Suggest correction