Oops, an error
Loading. Please wait.
We have an official No More Sorrow tab made by UG professional guitarists. Check out the tab »
×
56,789 views 1 this week
41 commentsread comments
1 2 3 4 5
x 32
add to favorites
×
Save as Personal and add changes to this tab that will be seen only by you. Learn more ›
×
You can save this tab as Personal to edit and correct it or add notes. All changes will be seen only by you. Learn more »
launch autoscroll
font size
0
reset
how to read this tab
guitar tuner
backing track
0:00
0:00
edit
Autoscroll
slow
fast
+/-
esc
set tempo
stop
Tab: Michel Franceschino
07.05.2007

This is my New Version of No More Sorrow ,i think that its 95% right.
Have fun!!!!

Intro:

1.Guitar 1

Main Riff

00:00 - 00:43

Eb:--------7--5--7-8-7---------------|
Bb:---7--8---------------------------|
Gb:9---------------------------------|
Db:----------------------------------|
Ab:----------------------------------|
Db:----------------------------------|

2.Guitar 2

Part A

00:14 - 00:27

Eb:-----------------------------------|
Bb:-----------------------------------|
Gb:-----------------------------------|
Db:-----------------------------------|
Ab:-2-2-2-2-2-2-----------------------|
Db:-2-2-2-2-2-2-----------------------|
    --pm------------------------------|

3.Part B

00:29 - 00:43

Eb:-------------------------------------------|
Bb:-------------------------------------------|
Gb:-------------------------------------------|
Db:-------------------------------------------|
Ab:-2-2-2-2-2-2--2-2-2-2--2-2-2-2-2-2-2-2-2-2-|
Db:-2-2-2-2-2-2--2-2-2-2--2-2-2-2-2-2-2-2-2-2-|
    --pm------- --pm---  --pm--------pm-------|


4.Chorus(Both Guitars)

00:45 - 00:55

Eb:-----------------------------------|
Bb:-----------------------------------|
Gb:-----------------------------------|
Db:-10-----9-----2--------------------| Repeat 3 times
Ab:-10-x4--9-x4--2-x8-----------------|
Db:-10-----9-----2--------------------|

then

00:56 - 01:00

Eb:----------------------------------|
Bb:----------------------------------|
Gb:----------------------------------|
Db:-5------9-----2-------------------|
Ab:-5-x8---9-x4--2-x4----------------|
Db:-5------9-----2-------------------|

5. Part B (Both Guitars)

               01:00 - 01:07

6. Part B (Guitar 2) + Main Riff (Guitar One)

               01:07 - 01:21

7. Part B (Both Guitars)

       01:21 - 01:28

8. Chorus (Both Guitars)

      01:29 - 01:43

9. Part B (Both Guitars)

               01:43 - 01:47

10.Part B (Guitar 2) + Main Riff (Guitar One)

               01:47 - 02:01

11. Part B (Both Guitars)

       02:01 - 02:08

12. Chorus (Both Guitars)

      02:08 - 02:23

13.Bridge

02:23 - 02:41

Eb:-----------------------------------|
Bb:-----------------------------------|
Gb:-----------------------------------|
Db:-1-2-1-4-3-1-2-6-------------------|
Ab:-1-2-1-4-3-1-2-6-------------------|
Db:-1-2-1-4-3-1-2-6-------------------|
    --pm---pm-------------------------|


14. Part A (Guitar 2) + Main Riff (Guitar 1)

02:41 - 03:02


15. Chorus (Both Guitars)

      03:03 - 03:17

16. Chourus(Guitar 2) + Main Riff (Guitar 1)

            03:17 - 03:31

17. Part B (Guitar 2) + Main Riff (Guitar 1)

                03:32 - 03:38

END

            
            
Suggest correction
Creating personal tab
Creating personal tab
You can edit any tab online and save it as your Personal.

You can edit, replace or remove any tab part or add personal notes – all changes will be seen only by you.

Personal tabs can be accessed anytime from any device, even offline.
Learn more »
comments
print report bad tab
41 comments total. Showing first comments.
+2 reply
waterbear91 10 May 08, 2007 05:01 PM

Thanks for the tab!

-1 reply
Rerereborn 10 May 09, 2007 03:34 AM

it´s 100% i have seen them play it on Aol Sessions

0 reply
Leggi 41 May 09, 2007 11:40 AM

then

00:56 - 01:00

Eb:----------------------------------|
Bb:----------------------------------|
Gb:----------------------------------|
Db:-5------9-----2-------------------|
Ab:-5-x8---9-x4--2-x4----------------|
Db:-5------9-----2-------------------|

the 2s should be 1s, watch AOL Sessions! 5 stars though^^

guest
Wanna post a correction for this tab? Suggest correction