Oops, an error
Loading. Please wait.

No More Sorrow tab

6,017 views 9 this week
1 commentread comment
1 2 3 4 5
x 4
add to favorites
×
Save as Personal and add changes to this tab that will be seen only by you. Learn more ›
×
You can save this tab as Personal to edit and correct it or add notes. All changes will be seen only by you. Learn more »
launch autoscroll
font size
0
reset
how to read this tab
guitar tuner
backing track
0:00
0:00
edit
Autoscroll
slow
fast
+/-
esc
set tempo
stop
NO MORE SORROW – LINKIN PARK
Tabbed by Grawganator1108
Tuning: Drop D (D,A,D,G,B,e)


INTRO
  Gtr I
e|-----------------------------|
B|-------------/11-9~-11-12-11-|
G|-8~--/10/11~-----------------|
D|-----------------------------|x2
A|-----------------------------|
D|-----------------------------|

(0:14)
  Gtr I
e|---------------------------------------|
B|---------------------/11-9~-11--12--11-|
G|-8~-----------/10/11~------------------|
D|---------------------------------------|
A|---------------------------------------|
D|---------------------------------------|
 |Gtr II                                 |x2
e|---------------------------------------|
B|---------------------------------------|
G|---------------------------------------|
D|-1-1-1-1-1-1-1-----------1-1-1-1-1-1-1-|
A|-1-1-1-1-1-1-1-----------1-1-1-1-1-1-1-|
D|-1-1-1-1-1-1-1-----------1-1-1-1-1-1-1-|


(0:29)
  Gtr I
e|--------------------------------------------------------------------|
B|------------------------------------/11--9----------------11-----12-|
G|-8~------------/10/11~----------------------------------------------|
D|--------------------------------------------------------------------|
A|--------------------------------------------------------------------|
D|--------------------------------------------------------------------|
 |Gtr II                                                              |
e|--------------------------------------------------------------------|
B|--------------------------------------------------------------------|
G|--------------------------------------------------------------------|
D|-1-1-1-1-1-1-1----------------------------1-1-1-1-1-1-1-------------|
A|-1-1-1-1-1-1-1--1-1-1-1--1-1-1-1-1-1-1-1--1-1-1-1-1-1-1--1-1-1-1--1-|
D|-1-1-1-1-1-1-1--1-1-1-1--1-1-1-1-1-1-1-1--1-1-1-1-1-1-1--1-1-1-1--1-|
PM                . . . .  . . . . . . . .                 . . . .  .

  Gtr I
e|--------------|
B|-11-----------|
G|--------------|
D|--------------|
A|--------------|
D|--------------|
 |Gtr II        |x2
e|--------------|
B|--------------|
G|--------------|
D|--------------|
A|1-1-1-1-1-1-1-|
D|1-1-1-1-1-1-1-|
  . . . . . . .

(0:45)
  Both Gtr’s
e|---------------------------------------------------|
B|---------------------------------------------------|
G|-4-4-4-4-4-4--3-3-3-3-3-3--------------------------|
D|-4-4-4-4-4-4--3-3-3-3-3-3--1-1-1-1-1-1-1-1-1-1-1-1-|x3
A|-2-2-2-2-2-2--1-1-1-1-1-1--1-1-1-1-1-1-1-1-1-1-1-1-|
D|---------------------------1-1-1-1-1-1-1-1-1-1-1-1-|

e|---------------------------------------------------|
B|---------------------------------------------------|
G|--------------------------3-3-3-3-3-3--------------|
D|-4-4-4-4-4-4-4-4-4-4-4-4--3-3-3-3-3-3--0-0-0-0-0-0-|
A|-4-4-4-4-4-4-4-4-4-4-4-4--1-1-1-1-1-1--0-0-0-0-0-0-|
D|-4-4-4-4-4-4-4-4-4-4-4-4---------------0-0-0-0-0-0-|

(1:00)
  Both Gtr’s (slightly palm muted)
e|--------------------------------------------------|
B|--------------------------------------------------|
G|--------------------------------------------------|
D|--------------------------------------------------|x2
A|-1-1-1-1-1-1-1--1-1-1-1--1-1-1-1-1-1-1-1----------|
D|-1-1-1-1-1-1-1--1-1-1-1--1-1-1-1-1-1-1-1----------|

                                           Are you lost?. . .
-----------------------------------------------------------------------
VERSE 1
(1:07)

  Gtr I
e|--------------------------------------------------------------------|
B|------------------------------------/11--9----------------11-----12-|
G|-8~------------/10/11~----------------------------------------------|
D|--------------------------------------------------------------------|
A|--------------------------------------------------------------------|
D|--------------------------------------------------------------------|
 |Gtr II                                                              |
e|--------------------------------------------------------------------|
B|--------------------------------------------------------------------|
G|--------------------------------------------------------------------|
D|--------------------------------------------------------------------|
A|-1-1-1-1-1-1-1--1-1-1-1--1-1-1-1-1-1-1-1--1-1-1-1-1-1-1--1-1-1-1--1-|
D|-1-1-1-1-1-1-1--1-1-1-1--1-1-1-1-1-1-1-1--1-1-1-1-1-1-1--1-1-1-1--1-|
PM . . . . . . .  . . . .  . . . . . . . .  . . . . . . .  . . . .  .

  Gtr I
e|--------------|
B|-11-----------|
G|--------------|
D|--------------|
A|--------------|
D|--------------|
 |Gtr II        |x4    do this twice fully palm muted and than twice
e|--------------|      with a slight palm mute and last two times Gtr
B|--------------|      I plays along with Gtr II. . .
G|--------------|
D|--------------|
A|1-1-1-1-1-1-1-|
D|1-1-1-1-1-1-1-|
  . . . . . . .

LYRICS
In your lives…
Don’t you tell yourself, I don’t realize…
Your crusade’s a disguise.
Replace freedom with fear,
You trade money for lives.
I’m aware of what you’ve done

-----------------------------------------------------------------------
CHORUS 1
(1:28)
  Both Gtr’s
e|---------------------------------------------------|
B|---------------------------------------------------|
G|-4-4-4-4-4-4--3-3-3-3-3-3--------------------------|
D|-4-4-4-4-4-4--3-3-3-3-3-3--1-1-1-1-1-1-1-1-1-1-1-1-|x3
A|-2-2-2-2-2-2--1-1-1-1-1-1--1-1-1-1-1-1-1-1-1-1-1-1-|
D|---------------------------1-1-1-1-1-1-1-1-1-1-1-1-|

e|---------------------------------------------------|
B|---------------------------------------------------|
G|--------------------------3-3-3-3-3-3--------------|
D|-4-4-4-4-4-4-4-4-4-4-4-4--3-3-3-3-3-3--0-0-0-0-0-0-|
A|-4-4-4-4-4-4-4-4-4-4-4-4--1-1-1-1-1-1--0-0-0-0-0-0-|
D|-4-4-4-4-4-4-4-4-4-4-4-4---------------0-0-0-0-0-0-|

No! No more sorrow!
I’ve paid for your mistakes!
Your! Time is borrowed!
Your time has come to Be Re-Placed!

-----------------------------------------------------------------------
CHORUS OUTRO
(1:43)
  Both Gtr’s (slightly palm muted)
e|--------------------------------------------------|
B|--------------------------------------------------|
G|--------------------------------------------------|
D|--------------------------------------------------|  just once
A|-1-1-1-1-1-1-1--1-1-1-1--1-1-1-1-1-1-1-1----------|
D|-1-1-1-1-1-1-1--1-1-1-1--1-1-1-1-1-1-1-1----------|

                                              I see pain. . .
-----------------------------------------------------------------------
VERSE 2 (1:47) same as first verse except for its only played 3 times, (first 2 full 
mute) (last 1 slightly palm muted)

I see me…
I see liars and thieves, abuse power with greed.
I had hope, I believed,
But I’m beginning to think that I’ve been deceived.
You will pay for what you’ve done!

-----------------------------------------------------------------------
CHORUS 2 (2:08) same as first chorus

-----------------------------------------------------------------------
BRIDGE
(2:23)
  Both Gtr’s      1-4  5
e|---------------|---|---|
B|---------------|---|---|
G|---------------|---|---|
D|---------------|-5-|-1-|x4
A|-0-1-0-3-1-0-1-|-5-|-1-|
D|-0-1-0-3-1-0-1-|-5-|-1-|
   . . . . . . .

-----------------------------------------------------------------------
CHORUS 3
(2:41)
  Gtr I
e|---------------------------------------|
B|---------------------/11-9~-11--12--11-|
G|-8~-----------/10/11~------------------|
D|---------------------------------------|
A|---------------------------------------|
D|---------------------------------------|
 |Gtr II                                 |x3
e|---------------------------------------|
B|---------------------------------------|
G|---------------------------------------|
D|-1-1-1-1-1-1-1-----------1-1-1-1-1-1-1-|
A|-1-1-1-1-1-1-1-----------1-1-1-1-1-1-1-|
D|-1-1-1-1-1-1-1-----------1-1-1-1-1-1-1-|

-----------------------------------------------------------------------
CHORUS 4 (3:03) same as chorus 1 & 2

-----------------------------------------------------------------------
CHORUS 5
(3:17)
  Gtr I
e|-----------------------------|
B|-------------/11-9~-11-12-11-|       play this throughout Gtr II’s
G|-8~--/10/11~-----------------|       riff. . .
D|-----------------------------|x2
A|-----------------------------|
D|-----------------------------|

  Gtr II
e|---------------------------------------------------|
B|---------------------------------------------------|
G|-4-4-4-4-4-4--3-3-3-3-3-3--------------------------|
D|-4-4-4-4-4-4--3-3-3-3-3-3--1-1-1-1-1-1-1-1-1-1-1-1-|x3
A|-2-2-2-2-2-2--1-1-1-1-1-1--1-1-1-1-1-1-1-1-1-1-1-1-|
D|---------------------------1-1-1-1-1-1-1-1-1-1-1-1-|

e|---------------------------------------------------|
B|---------------------------------------------------|
G|--------------------------3-3-3-3-3-3--------------|
D|-4-4-4-4-4-4-4-4-4-4-4-4--3-3-3-3-3-3--0-0-0-0-0-0-|
A|-4-4-4-4-4-4-4-4-4-4-4-4--1-1-1-1-1-1--0-0-0-0-0-0-|
D|-4-4-4-4-4-4-4-4-4-4-4-4---------------0-0-0-0-0-0-|

Your time has come to be re-placed!
Your time has come to be e-rased!
-----------------------------------------------------------------------
OUTRO
(3:32)
  Gtr I
e|--------------------------------------------------------------------|
B|------------------------------------/11--9----------------11-----12-|
G|-8~------------/10/11~----------------------------------------------|
D|--------------------------------------------------------------------|
A|--------------------------------------------------------------------|
D|--------------------------------------------------------------------|
 |Gtr II                                                              |
e|--------------------------------------------------------------------|
B|--------------------------------------------------------------------|
G|--------------------------------------------------------------------|
D|-1-1-1-1-1-1-1--1-1-1-1--1-1-1-1-1-1-1-1--1-1-1-1-1-1-1--1-1-1-1--1-|
A|-1-1-1-1-1-1-1--1-1-1-1--1-1-1-1-1-1-1-1--1-1-1-1-1-1-1--1-1-1-1--1-|
D|-1-1-1-1-1-1-1--1-1-1-1--1-1-1-1-1-1-1-1--1-1-1-1-1-1-1--1-1-1-1--1-|
PM

  Gtr I
e|--------------|
B|-11-----------|
G|--------------|
D|--------------|
A|--------------|
D|--------------|
 |Gtr II        |
e|--------------|
B|--------------|
G|--------------|
D|1-1-1-1-1-1-1-|
A|1-1-1-1-1-1-1-|
D|1-1-1-1-1-1-1-|
Suggest correction
Creating personal tab
Creating personal tab
You can edit any tab online and save it as your Personal.

You can edit, replace or remove any tab part or add personal notes – all changes will be seen only by you.

Personal tabs can be accessed anytime from any device, even offline.
Learn more »
comments
print report bad tab
1 comment total.
0 reply
Path0gen 10 May 16, 2007 06:01 PM

Way off... Watch AOL sessions video.

guest
You may want to rate the tab now too:
select rating
Wanna post a correction for this tab? Suggest correction