Oops, an error
Loading. Please wait.

No Roads Left bass

version 1
version 1

Whole song

Interactive

2,012 views 6 this week
1 commentread comment
1 2 3 4 5
x 6
add to favorites
×
Save as Personal and add changes to this tab that will be seen only by you. Learn more ›
×
You can save this tab as Personal to edit and correct it or add notes. All changes will be seen only by you. Learn more »
launch autoscroll
font size
0
reset
guitar tuner
edit
Autoscroll
slow
fast
+/-
esc
set tempo
stop
Tabbed By : slimk
e-mail: kenderickcraig@yahoo.com
Album: Minutes to Midnight(B-Side)
Tuning: Drop D (DADG)
This is another great song by Linkin Park, it didnt make the cut for the new album
but it really shouldve, this song would have been a top five for the album.
Love this song, and its really simple.

Verse 1:(0:24)
G|-------|
D|-------|
A|-------|
D|-7--7~-|
Repeat 8 times

Pre-Chorus:(0:39)
G|-------------------------------------------|
D|-------------------------------------------|
A|-------------------------------------------|
D|3~------5~------7--7~---7--7~---3~------5~-|

Chorus:(0:51) 
G|-----------------------------------|
D|-----------------------------------|
A|---------------------------33332222|
D|77777777-55555555-33333333---------|

G|-----------------------------------|
D|-----------------------------------|
A|---------------------------33332222|
D|77777777-55555555-33333333---------|

G|----------------|
D|----------------|
A|----------------|
D|0-0-0~---5-5-5~-|

Pre-Verse:(1:11)
G|-------|
D|-------|
A|-------|
D|-7--7~-|
Repeat 4 times

Verse 2:(1:20)
G|------------------------------|
D|------------------------------|
A|------------------------------|
D|-7--7~--7--7~--5--5~--5--5~---|
repeat 4 times

Pre-Chorus:(1:51)
G|-------------------------------|
D|-------------------------------|
A|-------------------------------|
D|3~------5~------7--7~---7--7~--|
repeat twice
G|-----------------|
D|-----------------|
A|-----------------|
D|3~------5~-------|


Chorus:(2:11) 
G|-----------------------------------|
D|-----------------------------------|
A|---------------------------33332222|
D|77777777-55555555-33333333---------|

G|-----------------------------------|
D|-----------------------------------|
A|---------------------------33332222|
D|77777777-55555555-33333333---------|

G|----------------|
D|----------------|
A|----------------|
D|0-0-0~---5-5-5~-|

Bridge:(2:31)
G|------------------------------------|
D|------------------------------------|
A|------------------------------------|
D|00000000-33333333-77777777-55555555-|

G|-----------------------------------------------------|
D|--------------------------------------------55555555-|
A|-----------------------------------------------------|
D|00000000-33333333-77777777-5555555555555555----------|

Pre-Chorus:(2:55)
G|----------------------------------|
D|----------------------------------|
A|----------------------------------|
D|7-7-7~---7-7-7~---3-3-3~---5-5-5~-|

Chorus:(3:03) 
G|-----------------------------------|
D|-----------------------------------|
A|---------------------------33332222|
D|77777777-55555555-33333333---------|

G|-----------------------------------|
D|-----------------------------------|
A|---------------------------33332222|
D|77777777-55555555-33333333---------|

G|----------------|
D|----------------|
A|----------------|
D|0-0-0~---5-5-5~-|

Outro:(3:22)
G|-------|
D|-------|
A|-------|
D|-7--7~-|
Repeat 12 times

And thats it. i love this song please rate.
| /  slide up
| \  slide down
| h  hammer-on
| p  pull-off
| ~  vibrato
| +  harmonic
| x  Mute note
===============================================================================

            
            
Suggest correction
Creating personal tab
Creating personal tab
You can edit any tab online and save it as your Personal.

You can edit, replace or remove any tab part or add personal notes – all changes will be seen only by you.

Personal tabs can be accessed anytime from any device, even offline.
Learn more »
comments
print report bad tab
1 comment total.
0 reply
Free2Live 115 Jun 25, 2007 01:58 PM

hey man, jw, if it didn't make the cut where abouts did you find it? i want it now. lol

guest
You may want to rate the tab now too:
select rating
Wanna post a correction for this tab? Suggest correction