Oops, an error
Loading. Please wait.

No Roads Left tab

version 1
version 1

Whole song

Interactive

19,853 views 6 this week
8 commentsread comments
1 2 3 4 5
x 23
add to favorites
×
Save as Personal and add changes to this tab that will be seen only by you. Learn more ›
×
You can save this tab as Personal to edit and correct it or add notes. All changes will be seen only by you. Learn more »
launch autoscroll
font size
0
reset
how to read this tab
guitar tuner
edit
Autoscroll
slow
fast
+/-
esc
set tempo
stop
Song- "No Roads Left"
Album- Minutes To Midnight

A kool song that only came exclusively with the album if u pre-ordered it with iTunes...

Drop d tuning

Intro/Verse
Gtr 1(distorted)
e--8--8--8--8--10-10-10-10-10-10-10----|
b--10-10-10-10-10-10-10-10-10-10-10----|
g--------------------------------------|X20
d--------------------------------------|
a--------------------------------------|
D--------------------------------------|

Pre-Chorous
Gtr 2(distorted)
e------------------------------------------|-------------------------------|
b------------------------------------------|-------------------------------|
g-10-10-10-10-10-10-10-10/12-12-12-12-12-12|-------------------------------|
d-x--x--x--x--x--x--x--x--x--x--x--x--x--x-|-------------------------------|
a-8--8--8--8--8--8--8--8-/10-10-10-10-10-10|-------------------------------|
D------------------------------------------|-------------------------------|
          X2 (second pre chorous 3x)

Gtr 1(distorted)
e------------------------------------------|8--8--8--8--10-10-10-10-10-10-
b------------------------------------------|10-10-10-10-10-10-10-10-10-10-X2
g------------------------------------------|------------------------------
d------------------------------------------|------------------------------
a------------------------------------------|------------------------------
D------------------------------------------|------------------------------
                                             X2(second pre chorous 3x)

Chorous
Gtr 2(distorted)
e-------------------------------------------------------------------------|
b-------------------------------------------------------------------------|
g-17-17-17-17-17-17-17-17-16-16-16-16-16-16-16-16-17-17-17-17-17-17-17-17-|
d-x--x--x--x--x--x--x--x--x--x--x--x--x--x--x--x--x--x--x--x--x--x--x--x--|
a-15-15-15-15-15-15-15-15-14-14-14-14-14-14-14-14-15-15-15-15-15-15-15-15-|
D-------------------------------------------------------------------------|

------------------------|   |-----------------------------------|
------------------------|   |-----------------------------------|
17-17-17-17-19-19-19-19-|X2 |19-19-19-19-19~----19-19-19-19-19~-|
x--x--x--x--x--x--x--x--|   |x--x--x--x--x------x--x--x--x--x---|
15-15-15-15-17-17-17-17-|   |17-17-17-17-17~----17-17-17-17-17~-|
------------------------|   |-----------------------------------|

Gtr 1 (slightly distorted)
e-----------------------------------------------------------------|   |
b-----------------------------------------------------------------|   |
g-2-2-2-2-2-2-2-2---------------------------------5-5-5-5-4-4-4-4-|X2 |
d-2-2-2-2-2-2-2-2-5-5-5-5-5-5-5-5-3-3-3-3-3-3-3-3-5-5-5-5-4-4-4-4-|   |
a-0-0-0-0-0-0-0-0-5-5-5-5-5-5-5-5-3-3-3-3-3-3-3-3-3-3-3-3-2-2-2-2-|   |
D-----------------5-5-5-5-5-5-5-5-3-3-3-3-3-3-3-3-----------------|   |

------------------------|
------------------------|
------------------------|
-0-0-0-0-0~---5-5-5-5-5~|
-0-0-0-0-0----5-5-5-5-5~|
-0-0-0-0-0~---5-5-5-5-5~|

Verse 2
Chorous

*Verse 2 is the same and the second pre chorous is the same except for Gtr 1 is more distorted and turned up in the second chorous*  


Bridge
Gtr 1(heavily distorted)
e----------------------------------------------------------------|-------|
b----------------------------------------------------------------|-------|
g---------------------------------2-2-2-2-2-2-2-2----------------|-- X16-|
d-0-0-0-0-0-0-0-0-3-3-3-3-3-3-3-3-2-2-2-2-2-2-2-2-5-5-5-5-5-5-5-5|-5-----|
a-0-0-0-0-0-0-0-0-3-3-3-3-3-3-3-3-0-0-0-0-0-0-0-0-5-5-5-5-5-5-5-5|-5-----|
D-0-0-0-0-0-0-0-0-3-3-3-3-3-3-3-3-----------------5-5-5-5-5-5-5-5|-5-----|

 Final Pre-Chorous
Gtr 2(distorted)
e------------------------------------------|-------------------------------|
b------------------------------------------|-------------------------------|
g-10-10-10-10-10-10-10-10/12-12-12-12-12-12|-------------------------------|
d-x--x--x--x--x--x--x--x--x--x--x--x--x--x-|-------------------------------|
a-8--8--8--8--8--8--8--8-/10-10-10-10-10-10|-------------------------------|
D------------------------------------------|-------------------------------|

e----------------------------------|
b----------------------------------|
g-10-10-10-10-10-10-10-10/12-12-12-|
d-x--x--x--x--x--x--x--x--x--x--x--|
a-8--8--8--8--8--8--8--8-/10-10-10-|
D----------------------------------|
Gtr 1( Heavily distorted)
e------------------------------------------|-------------------------------|
b------------------------------------------|-------------------------------|
g------------------------------------------|-2-2-2-2-2-2-2-2-2-2-2-2-2-2-2-|
d------------------------------------------|-2-2-2-2-2-2-2-2-2-2-2-2-2-2-2-|
a------------------------------------------|-0-0-0-0-0-0-0-0-0-0-0-0-0-0-0-|
D------------------------------------------|-------------------------------|

e---------------------------|
b---------------------------|
g---------------------------|
d-3-3-3-3-3-3-3-3-5-5-5-5-5-|
a-3-3-3-3-3-3-3-3-5-5-5-5-5-|
D-3-3-3-3-3-3-3-3-5-5-5-5-5-|

Chorous (Gtr 1 is heavily distorted)


Ending
Gtr 1(distorted)
e--8--8--8--8--10-10-10-10-10-10-10----|
b--10-10-10-10-10-10-10-10-10-10-10----|
g--------------------------------------|X12
d--------------------------------------|
a--------------------------------------|
D--------------------------------------|

            
            
Suggest correction
Creating personal tab
Creating personal tab
You can edit any tab online and save it as your Personal.

You can edit, replace or remove any tab part or add personal notes – all changes will be seen only by you.

Personal tabs can be accessed anytime from any device, even offline.
Learn more »
comments
print report bad tab
8 comments total. Showing first comments.
0 reply
guitar padawan 166 May 19, 2007 04:57 AM

my bad on the X16 after the bridge only play the bottom 3 strings instead of all six

0 reply
guitar padawan 166 May 22, 2007 09:08 AM

fixed it

0 reply
Jose Montoya 103 Jul 23, 2007 05:53 PM

thats good....nice song and tab!

guest
You may want to rate the tab now too:
select rating
Wanna post a correction for this tab? Suggest correction