Oops, an error
Loading. Please wait.

Nobody Can Save Me tab

version 1
version 1

Whole song

  • Includes lead and rhythm guitars, some tremolo gui... Show more

Interactive

865 views 69 this week
no commentswrite comment
1 2 3 4 5
2 more votes to show rating
add to favorites
×
Save as Personal and add changes to this tab that will be seen only by you. Learn more ›
×
You can save this tab as Personal to edit and correct it or add notes. All changes will be seen only by you. Learn more »
launch autoscroll
font size
0
reset
how to read this tab
guitar tuner
edit
Autoscroll
slow
fast
+/-
esc
set tempo
stop
About this tab version
Includes lead and rhythm guitars, some tremolo guitar, and some of the lyrics to help you follow along. Was this info helpful? Yes No
Nobody Can Save Me - Tab

Note I:I added some of the lyrics to help you follow with the notes better.  
Also, I have listed the guitarsused as well as the tuning, whether or not 
there's a capo, and the effects used (or as close as I can get).

NOte II: I'll probably finish guitar I's tremolo later since the other 
guitars have more prominent parts.
_____________________________

Key

/  = Slide up
\  = Slide down
~  = let ring
_____________________________

Guitars:

Guitar I   = Standard, Capo: None, Clean (Heavy Reverb/Tremolo)
Guitar II  = Standard, Capo: 4, Clean (Reverb)
Guitar III = Dropped D, Capo: None, Distortion (may be synthesized)
_____________________________

[Intro/Verse I]

[Guitar I (0:02)]
[x5]
E|------------|------------|------------|------------|
B|------------|------------|------------|------------|
G|------------|------------|------------|------------|
D|-9~---------|------------|-6~---------|-6~----8~---|
A|------------|-7~---------|------------|------------|
E|------------|------------|------------|------------|

E|------------|------------|------------|------------|
B|------------|------------|------------|------------|
G|------------|------------|------------|-------11~--|
D|-9~---------|------------|-9~---------|-9~---------|
A|------------|-11~--------|------------|------------|
E|------------|------------|------------|------------|

[x1]
                                          Wide awake...
E|------------|------------|------------|------------|
B|------------|------------|------------|------------|
G|-9~---------|-9~----11~--|-8~---------|-9~---------|
D|------------|------------|------------|------------|
A|------------|------------|------------|------------|
E|------------|------------|------------|------------|

[Guitar II]
[0:30-1:17]

     Storm clouds...
E|--------------|--------------|--------------|--------------|
B|--------------|--------------|-------0------|--------------|
G|-4--4--4--4\0-|--------------|----0-----0--2|--------------|
D|--------------|-2--2--2--2/5-|-5------------|--5--4--4-----|
A|--------------|--------------|--------------|--------------|
E|--------------|--------------|--------------|--------------|

     Waves break...
E|--------------|--------------|--------------|--------------|
B|--------------|--------------|--------------|--------------|
G|-4--4--4--4\0-|--------------|----4-----4---|--4-----4-----|
D|--------------|-2--2--2--2/5-|-5-----7-----5|-----5--------|
A|--------------|--------------|--------------|--------------|
E|--------------|--------------|--------------|--------------|

     Head first...                     Wide awake
E|------------|------------|------------|------------|
B|------------|------------|------------|------------|
G|------------|------------|------------|------------|
D|-2--2--2--2-|-2--2--4--4-|-5--5--5--5-|-2--2--2--2-|
A|------------|------------|------------|------------|
E|------------|------------|------------|------------|

[Chorus]

   now...                         Tell me I'm for-
E|------------|------------|------------|------------|
B|------------|------------|------------|------------|
G|-4~----4~---|-4~----2--2-|-------2----|-2-----2----|
D|------------|------------|-5--5-----5-|----5-----5-|
A|------------|------------|------------|------------|
E|------------|------------|------------|------------|

   gi...       ven...    tonight...
E|------------|------------|------------|------------|
B|------------|------------|------------|------------|
G|------------|-4--4--4--4-|-------4----|------------|
D|-2--2--2--2-|------------|-5--5-----5-|-4--4--5--4-|
A|------------|------------|------------|------------|
E|------------|------------|------------|------------|

   now...                a light...
E|------------|------------|------------|------------|
B|------------|------------|------------|------------|
G|-4~----4~---|-4--4--2--2-|-------2----|-2-----2----|
D|------------|------------|-5--5-----5-|----5-----5-|
A|------------|------------|------------|------------|
E|------------|------------|------------|------------|

   dark...     ness...    inside...     Cause nobody can save me...
E|------------|------------|------------|------------|
B|------------|------------|------------|------------|
G|------------|-4--4--4----|-------4----|------------|
D|-2--2--2--2-|----------4-|-5--5-----5-|------------|
A|------------|------------|------------|------------|
E|------------|------------|------------|------------|

[Interlude/Verse II]

[Guitar II]
[1:38-1:59]

     I chose a false...
E|--------------|--------------|--------------|--------------|
B|--------------|--------------|-------0------|--------------|
G|-4--4--4--4\0-|--------------|----0-----0--2|--------------|
D|--------------|-2--2--2--2/5-|-5------------|--5--4--4-----|
A|--------------|--------------|--------------|--------------|
E|--------------|--------------|--------------|--------------|

     But nobody...
E|--------------|--------------|--------------|--------------|
B|--------------|--------------|--------------|--------------|
G|-4--4--4--4\0-|--------------|--------------|--------------|
D|--------------|-2--2--2--4---|-5--5--5--5---|-5--5--4--4---|
A|--------------|--------------|--------------|--------------|
E|--------------|--------------|--------------|--------------|

     Head first...                     Wide awake...         Watch...
E|------------|------------|------------|------------|------------|
B|------------|------------|------------|------------|------------|
G|------------|------------|------------|------------|------------|
D|-2--2--2--2-|-2--2--4--4-|-5--5--5--5-|-2--2--2--2-|-2--2--2--2-|
A|------------|------------|------------|------------|------------|
E|------------|------------|------------|------------|------------|

[Guitar III]
[1:18-1:51]
[x5]
E|------------|------------|------------|------------|
B|------------|------------|------------|------------|
G|------------|------------|------------|------------|
D|-9----------|-2----------|-6----------|-6-----4----|
A|-9----------|-2----------|-6----------|-6-----4----|
D|-9----------|-2----------|-6----------|-6-----4----|

[No guitar from 2:00-2:01]

[Chorus II]

[Guitar II]
[2:02-2:29]
   now...                         Tell me I'm for-
E|------------|------------|------------|------------|
B|------------|------------|------------|------------|
G|-4~----4~---|-4--4--2--2-|-------2----|-2-----2----|
D|------------|------------|-5--5-----5-|----5-----5-|
A|------------|------------|------------|------------|
E|------------|------------|------------|------------|

   gi...       ven...    tonight...
E|------------|------------|------------|------------|
B|------------|------------|------------|------------|
G|------------|-4--4--4--4-|-------4----|------------|
D|-2--2--2--2-|------------|-5--5-----5-|-4--4--5--4-|
A|------------|------------|------------|------------|
E|------------|------------|------------|------------|

   now...                a light...
E|------------|------------|------------|------------|
B|------------|------------|------------|------------|
G|-4~----4~---|-4--4--2--2-|-------2----|-2-----2----|
D|------------|------------|-5--5-----5-|----5-----5-|
A|------------|------------|------------|------------|
E|------------|------------|------------|------------|

   dark...     ness...    inside...     Cause nobody can save me...
E|------------|------------|------------|------------|
B|------------|------------|------------|------------|
G|------------|-4--4--4----|-------4----|------------|
D|-2--2--2--2-|----------4-|-5--5-----5-|-4--4--5--4-|
A|------------|------------|------------|------------|
E|------------|------------|------------|------------|

[Guitar III]
[2:02-2:29]
[x2]
E|------------|------------|------------|------------|
B|------------|------------|------------|------------|
G|------------|------------|------------|------------|
D|-9----------|-------4----|-6----------|-------4----|
A|-9----------|-------4----|-6----------|-------4----|
D|-9----------|-------4----|-6----------|-------4----|

E|------------|------------|------------|------------|
B|------------|------------|------------|------------|
G|------------|------------|------------|------------|
D|-2----------|-9----------|-6----------|-4----------|
A|-2----------|-9----------|-6----------|-4----------|
D|-2----------|-9----------|-6----------|-4----------|

[Bridge]

[Guitar II]
[2:30-2:56]
[x3]
E|------------|------------|------------|------------|
B|------------|------------|------------|------------|
G|------------|-4--4--4--4-|-------4----|------------|
D|-2--2--2--2-|------------|-5--5-----5-|-4--4--5--4-|
A|------------|------------|------------|------------|
E|------------|------------|------------|------------|

[x1]
E|------------|------------|------------|------------|
B|------------|------------|------------|------------|
G|------------|-4--4--4--4-|------------|------------|
D|-2--2--2--2-|------------|------------|------------|
A|------------|------------|------------|------------|
E|------------|------------|------------|------------|

[Guitar III]
[2:30-2:56]
[x3]
E|------------|------------|------------|------------|
B|------------|------------|------------|------------|
G|------------|------------|------------|------------|
D|-2--2--2--2-|-9--9--9--9-|-6--6--6--6-|-4--4--4--4-|
A|-2--2--2--2-|-9--9--9--9-|-6--6--6--6-|-4--4--4--4-|
D|-2--2--2--2-|-9--9--9--9-|-6--6--6--6-|-4--4--4--4-|

[x1]
E|------------|------------|------------|------------|
B|------------|------------|------------|------------|
G|------------|------------|------------|------------|
D|-2--2--2--2-|-9--9--9--9-|------------|------------|
A|-2--2--2--2-|-9--9--9--9-|------------|------------|
D|-2--2--2--2-|-9--9--9--9-|------------|------------|

[Chorus III]

[Guitar II]
[2:57-3:27]
   now...                         Tell me I'm for-
E|------------|------------|------------|------------|
B|------------|------------|------------|------------|
G|-4~----4~---|-4~----4~---|-4~----4~---|-4~----2~---|
D|------------|------------|------------|------------|
A|------------|------------|------------|------------|
E|------------|------------|------------|------------|

   gi...       ven...    tonight...
E|------------|------------|------------|------------|
B|------------|------------|------------|------------|
G|-5~----5~---|-4~----4~---|-4~----4~---|-2~----2~---|
D|------------|------------|------------|------------|
A|------------|------------|------------|------------|
E|------------|------------|------------|------------|

   now...                a light...
E|------------|------------|------------|------------|
B|------------|------------|------------|------------|
G|-4~----4~---|-4~----4~---|-4~----4~---|-4~----2~---|
D|------------|------------|------------|------------|
A|------------|------------|------------|------------|
E|------------|------------|------------|------------|

   dark...     ness...    inside...     And I don't want to let you...
E|------------|------------|------------|------------|
B|------------|------------|------------|------------|
G|-5~----5~---|-4~----4~---|-4~----4~---|-2~----2~---|
D|------------|------------|------------|------------|
A|------------|------------|------------|------------|
E|------------|------------|------------|------------|

down...        but only I can save me...
E|------------|----3-----3-|
B|------------|------------|
G|-4~----4~---|------------|
D|------------|------------|
A|------------|------------|
E|------------|------------|

[Guitar III]
[2:57-3:25]
[x2]
E|------------|------------|------------|------------|
B|------------|------------|------------|------------|
G|------------|------------|------------|------------|
D|-9--9--9--9-|-9--9--4--4-|-6--6--6--6-|-6--6--4--4-|
A|-9--9--9--9-|-9--9--4--4-|-6--6--6--6-|-6--6--4--4-|
D|-9--9--9--9-|-9--9--4--4-|-6--6--6--6-|-6--6--4--4-|

E|------------|------------|------------|------------|------------|
B|------------|------------|------------|------------|------------|
G|------------|------------|------------|------------|------------|
D|-2--2--2--2-|-9--9--9--9-|-6--6--6--6-|-4--4--4--4-|-6--6--6--6-|
A|-2--2--2--2-|-9--9--9--9-|-6--6--6--6-|-4--4--4--4-|-6--6--6--6-|
D|-2--2--2--2-|-9--9--9--9-|-6--6--6--6-|-4--4--4--4-|-6--6--6--6-|

[No guitar from 3:26-3:27]

[Outro]

[Guitar II]
[3:28-3:46]

      Been searching somewhere...
E|------------|------------|------------|------------|
B|------------|------------|------------|------------|
G|-4~----4~---|-4~----4~---|-4~----4~---|-4~----2~---|
D|------------|------------|------------|------------|
A|------------|------------|------------|------------|
E|------------|------------|------------|------------|

      For what's been missing...
E|------------|------------|------------|------------|
B|------------|------------|------------|------------|
G|-4--4--4--4-|------------|------------|------------|
D|------------|-2--2--2--4-|-5--5--5--5~|------------|
A|------------|------------|------------|------------|
E|------------|------------|------------|------------|

[Guitar III]
[3:28-3:34]
E|------------|------------|------------|------------|
B|------------|------------|------------|------------|
G|------------|------------|------------|------------|
D|-9----------|-2----------|-6----------|-6-----4----|
A|-9----------|-2----------|-6----------|-6-----4----|
D|-9----------|-2----------|-6----------|-6-----4----|

If there's any confusion, questions, or advice on how to 
improve it, please post a comment. Feel free to check out 
my guitar and bass covers on YouTube.  

https://www.youtube.com/user/Trarrgargra

Have fun playing, and please rate! 

-Rarrlow

            
            
Suggest correction
Creating personal tab
Creating personal tab
You can edit any tab online and save it as your Personal.

You can edit, replace or remove any tab part or add personal notes – all changes will be seen only by you.

Personal tabs can be accessed anytime from any device, even offline.
Learn more »
Give kudos to tab author, rate the tab!
1 2 3 4 5
comments
print report bad tab
guest
You may want to rate the tab now too:
select rating
Wanna post a correction for this tab? Suggest correction