Oops, an error
Loading. Please wait.

Numb Encore tab

version 1
version 1

Whole song

Interactive

19,756 views 27 this week
2 commentsread comments
1 2 3 4 5
x 10
add to favorites
×
Save as Personal and add changes to this tab that will be seen only by you. Learn more ›
×
You can save this tab as Personal to edit and correct it or add notes. All changes will be seen only by you. Learn more »
launch autoscroll
font size
0
reset
how to read this tab
guitar tuner
edit
Autoscroll
slow
fast
+/-
esc
set tempo
stop
Author
----------------------------------------------------------------------------
                      numb encore - linkin park and jay-z
----------------------------------------------------------------------------
Tabbed by:fender785
Email:
Tuning:standard
this goes on through the whole song
e|------------------17--16--------------17--16------------------------------|
B|----14-17-14-19------------14-17-17------------17-------------------------|
G|--------------------------------------------------------------------------|
D|--------------------------------------------------------------------------|
A|--------------------------------------------------------------------------|
E|--------------------------------------------------------------------------|

            
            
Suggest correction
Creating personal tab
Creating personal tab
You can edit any tab online and save it as your Personal.

You can edit, replace or remove any tab part or add personal notes – all changes will be seen only by you.

Personal tabs can be accessed anytime from any device, even offline.
Learn more »
comments
print report bad tab
2 comments total.
+1 reply
gavz_verdikt 61 Oct 12, 2007 03:57 AM

shud have put it as intro.. it doesnt go thruout the song

-1 reply
brazen 115 Mar 17, 2008 04:02 PM

thats what i play only istead of using the B string so much i use the E like this:

e:-----12----14---17-16--------12----14----16-12---
B:--14----14----------------14----14---------------
G:-------------------------------------------------
D:-------------------------------------------------
A:-------------------------------------------------
E:-------------------------------------------------

dont know if thats what he plays but it sounds good when ur playin it alone on guitar

guest
You may want to rate the tab now too:
select rating
Wanna post a correction for this tab? Suggest correction