Oops, an error
Loading. Please wait.

Numb Tab

version 1
221,742 views 99 this week
11 commentsread comments
1 2 3 4 5
worth learning
x 30
add to favorites
launch autoscroll
font size
0
reset
how to read this tab
guitar tuner
Tab Pro tools
  • play this tab
  • loop segment
  • change instrument
  • show fretboard
  • metronome
Autoscroll
slow
fast
+/-
esc
set tempo
stop
Contributor
-------------------------------------------------------------------------------
                               Numb - Linkin Park
-------------------------------------------------------------------------------

Tabbed by: Pryftan
Email: mmisbetterthenyou@hotmail.com
Album: Meteora.

Tuning: Drop Db.

Chorus chords:
Eb|---------------|
Bb|---------------|
Gb|---------------|
Db|--5--1--8--3---|
Ab|--5--1--8--3---|
Db|--5--1--8--3---|

Bridge, comes in after the second chorus:
Eb|-----------------------------|
Bb|-----------------------------|
Gb|-----------------------------|
Db|--1--3--5-7-8-7-1--3--0--0---|
Ab|--1--3--5-7-8-7-1--3--0--0---|
Db|--1--3--5-7-8-7-1--3--0--0---|
comments
print report bad tab
11 comments total. Showing first comments.
0 reply
NothinButString wrote on April 5 2003, 12:00 am

For just having the guitar part, it's perfect. Hope someone puts the chorus parts up.

0 reply
NothinButString wrote on April 5 2003, 12:00 am

I mean verses.

0 reply
aztas wrote on September 11 2003, 12:00 am

Bridge, comes in after the second chorus:
Eb|-----------------------------|
Bb|-----------------------------|
Gb|-----------------------------|
Db|--1--3--5-7-8-7-1--3--0--0--0-|
Ab|--1--3--5-7-8-7-1--3--0--0--0-|
Db|--1--3--5-7-8-7-1--3--0--0--0-|
there should be another 0 chords

I want to post or [tab]
guest
You may want to rate the tab now too:
select rating
Please do not post tabs as comments. Select "correction" instead!