Oops, an error
Loading. Please wait.
We have an official Numb tab made by UG professional guitarists. Check out the tab »
×

Numb Acoustic chords

473,832 views 13,449 this week
12 commentsread comments
1 2 3 4 5
x 129
add to favorites
×
Save as Personal and add changes to this tab that will be seen only by you. Learn more ›
×
You can save this tab as Personal to edit and correct it or add notes. All changes will be seen only by you. Learn more »
launch autoscroll
font size
0
reset
transpose
0
reset
display chords
guitar tuner
backing track
0:00
0:00
edit
Autoscroll
slow
fast
+/-
esc
set tempo
stop
Strumming Is this strumming pattern correct? Yes No
Whole Song 100 bpm
1
&
2
&
3
&
4
&
Listen
Tab
Linkin Park - Numb (Acoustic)


[Intro]
e|---------|-------5-----4---|(4)--------------|-5-----4---------|-----------------|
B|-----5---|-7---------------|-------------5---|-------------5---|(5)----------5---|
G|---6---6-|-----------------|-----------6---6-|-----------------|-----------6---6-|
D|---------|-----------------|-----------------|-----------------|-----------------|
A|---------|-----------------|-----------------|-----------------|-----------------|
E|---------|-----------------|-----------------|-----------------|-----------------|

(continue into verse)

[Verse 1]
  F#m                        D
I’m tired of being what you want me to be 
 A           
Feeling so faithless 
     E
Lost under the surface 
  F#m                           D
I don’t know what you’re expecting of me 
    A 
Put under the pressure 
   E                 D 
of walking in your shoes 
                              E
(Caught in the undertow, just caught in the undertow) 


[Pre Chorus]
       F#m                  
Every step that I take is 
  A                 D
another mistake to you 
                              E   
(Caught in the undertow, just caught in the undertow)


[Chorus]
F#m             D 
I’ve became so numb
                   A 
I can’t feel you there
            E 
Become so tired
              F#m        
So much more aware
               D 
I’m becoming this 
               A
All I want to do 
                 E
Is be more like me 
                  F#m
And be less like you 


[Verse 2]
                          D
Can’t you see that you’re smothering me
 A                     E                F#m 
Holding too tightly afraid to lose control 
                            D
Cause everything that you thought I would be 
     A            E                 D 
Has fallen apart right in front of you
                              E
(Caught in the undertow, just caught in the undertow)
       F#m                  
Every step that I take is 
  A                 D
another mistake to you 
                              E   
(Caught in the undertow, just caught in the undertow)
           F#m                        A
And every second I waste is more than I can take 


[Chorus]
F#m             D 
I’ve became so numb
                   A 
I can’t feel you there
            E 
Become so tired
              F#m        
So much more aware
               D 
I’m becoming this 
               A
All I want to do 
                 E
Is be more like me 
                  D
And be less like you 


[Bridge]
        E        F#m  G#m  A  C#m   D     
And I know I may end  up  failing, too. 
        E            C#m  
But I know you were just like me with someone disappointed in you 


[Chorus]
F#m             D 
I’ve became so numb
                   A 
I can’t feel you there
            E 
Become so tired
              F#m        
So much more aware
               D 
I’m becoming this 
               A
All I want to do 
                 E
Is be more like me 
                  F#m
And be less like you 

                D
I've become so numb
                   A 
I can't feel you there
                         E              
(Tired of being what you want me to be) 

F#m             D 
I've become so numb
                  A 
I can't feel you there
                         E 
(Tired of being what you want me to be)


[Outro]
e|---------|-------5-----4---|(4)--------------|-5-----4---------|-----------------|
B|-----5---|-7---------------|-------------5---|-------------5---|(5)--------------|
G|---6---6-|-----------------|-----------6---6-|-----------------|-----------------|
D|---------|-----------------|-----------------|-----------------|-----------------|
A|---------|-----------------|-----------------|-----------------|-----------------|
E|---------|-----------------|-----------------|-----------------|-----------------|

            
            
Suggest correction
Creating personal tab
Creating personal tab
You can edit any tab online and save it as your Personal.

You can edit, replace or remove any tab part or add personal notes – all changes will be seen only by you.

Personal tabs can be accessed anytime from any device, even offline.
Learn more »
comments
print report bad tab
12 comments total. Showing first comments.
+7 reply
DJ_Jones 137 May 21, 2006 09:05 AM

Em with Capo 2 is the same as F#m... maybe your fingers aren't on the right frets. try harder.

about the picking part... it doesn't match with the Chords, it would sound better like this:

e |--------------2--5--4--|--------------5--4--0----|
B |---2--5--2-------------|---2--5--2------------0-|
G |------------------------|--------------------------|
D |------------------------|--------------------------|
A |------------------------|--------------------------|
G |------------------------|--------------------------|

e |--------------2--|
B |---2--5--2------|
G |-----------------|
D |-----------------|
A |-----------------|
G |-----------------|

then start with the F#m and so on.

see yz

0 reply
loveheart58 10 Oct 21, 2006 08:48 AM

this chord progression is the best! nice 1 DJ jones glad uv corrected the intro to the right sound ^^! even tho the Em capo 2nd fret is the same it sounds crapper cos the sound sounds higher! i prefer this whoo rock on!

+6 reply
bricktopra3 10 Jan 12, 2007 05:31 PM

I retract my statement, I am a dumbass, this tab is the best!

guest
You may want to rate the tab now too:
select rating
Wanna post a correction for this tab? Suggest correction