Oops, an error
Loading. Please wait.
We have an official One More Light tab made by UG professional guitarists. Check out the tab »
×

One More Light tab

version 1
version 1

Whole song

  • This tab is based on the live performance (https:/... Show more
  • More accurate. Based on watching song played live.

Interactive

Video

61,201 views 2,709 this week
8 commentsread comments
1 2 3 4 5
x 26
add to favorites
×
Save as Personal and add changes to this tab that will be seen only by you. Learn more ›
×
You can save this tab as Personal to edit and correct it or add notes. All changes will be seen only by you. Learn more »
launch autoscroll
font size
0
reset
how to read this tab
guitar tuner
edit
Autoscroll
slow
fast
+/-
esc
set tempo
stop
From New album "One More Light" My tribute For the Song
https://www.youtube.com/watch?v=wk72_j86B0E


tabs is for how i think  brad plays it live and the same as the studio's version.
https://www.youtube.com/watch?v=JOI0T4Xankc&t=103s - Live preformance of lp plas it
to know hwo to play it and lisent to the song
Standard Tuning.
Capo on 1'st fret.

[Intro & Verses]
e|-------7----------|
B|------------------|
G|-------0----------|
D|------------------| x4
A|----7-------------|
E|------------------|

e|-------5----------|
B|------------------|
G|-------0----------|
D|------------------| x4
A|----3-------------|
E|------------------|

e|-------7----------|
B|------------------|
G|-------0----------|
D|----5-------------| x4
A|------------------|
E|------------------|

e|--------7---------|
B|------------------|
G|-------7----------|
D|----5-------------| x2
A|------------------|
E|------------------|

e|-------7----------|
B|------------------|
G|-------7----------|
D|----4-------------| x2
A|------------------|
E|------------------|

[Pre-Chorus]
Things...
e|-------7----------|
B|------------------|
G|-------0----------|
D|------------------| x4
A|----7-------------|
E|------------------|

Have.
e|-------5----------|
B|------------------|
G|-------0----------|
D|------------------| x4
A|----3-------------|
E|------------------|

Keep..
e|-------5----------|
B|------------------|
G|-------0----------|
D|------------------| x4
A|----5-------------|
E|------------------|

[Chorus]
e|-------7----------|
B|------------------|
G|-------0----------|
D|------------------| x4
A|----7-------------|
E|------------------|

e|-------5----------|
B|------------------|
G|-------0----------|
D|------------------| x4
A|----3-------------|
E|------------------|

e|-------7----------|
B|------------------|
G|-------0----------|
D|----5-------------| x4
A|------------------|
E|------------------|

e|--------7---------|
B|------------------|
G|-------7----------|
D|----5-------------| x2
A|------------------|
E|------------------|

e|--------7---------|
B|------------------|
G|-------7----------|
D|----4-------------| x2
A|------------------|
E|------------------|

(second time)
" Well I...
e|-------5-----------|
B|-------------------|
G|-------0-----------|
D|-------------------| x4
A|-------------------|
E|--5----------------|

DO..
e|------3------------|
B|------3------------|
G|------0------------|
D|-------------------| x6
A|-------------------|
E|---3---------------|

e|------3------------|
B|------3------------|
G|------0------------|
D|-------------------| x2
A|-------------------|
E|---2---------------|

[Solo]
e|-------------------------------10-10-10--------------------------------------------|
B|---12-12-12-12--10-10-8-8-8-8------------10-10-10---8--10-10-10-12-12-10--8-8-8-8--|
G|-----------------------------------------------------------------------------------|
D|-----------------------------------------------------------------------------------|
A|-----------------------------------------------------------------------------------|
E|-----------------------------------------------------------------------------------|

e|-10-10-10-------------------------------------------|
B|-----------10-10-10--8--10-10-10-12-12-10-8-8-8-8---|
G|----------------------------------------------------|
D|----------------------------------------------------|
A|----------------------------------------------------|
E|----------------------------------------------------|

e|-10-10-10-------------------------------------------------------------|
B|-----------10-10-10-8--10-10-10-12-12---8-10-10-8--10--12-12--8--10---|
G|----------------------------------------------------------------------|
D|----------------------------------------------------------------------|
A|----------------------------------------------------------------------|
E|----------------------------------------------------------------------|

[Chorus]
e|-------7----------|
B|------------------|
G|-------0----------|
D|------------------| x4
A|----7-------------|
E|------------------|

e|-------5----------|
B|------------------|
G|-------0----------|
D|------------------| x4
A|----3-------------|
E|------------------|

e|-------7----------|
B|------------------|
G|-------0----------|
D|----5-------------| x4
A|------------------|
E|------------------|

e|--------7---------|
B|------------------|
G|-------7----------|
D|----5-------------| x2
A|------------------|
E|------------------|

e|--------7---------|
B|------------------|
G|-------7----------|
D|----4-------------| x2
A|------------------|
E|------------------|

" Well I...
e|-------5-----------|
B|-------------------|
G|-------0-----------|
D|-------------------| x4
A|-------------------|
E|--5----------------|

DO..
e|------3------------|
B|------3------------|
G|------0------------|
D|-------------------| x6
A|-------------------|
E|---3---------------|

or
e|-------7----------|
B|------------------|
G|-------0----------|
D|----5-------------| x4
A|------------------|
E|------------------|

            
            
Suggest correction
Creating personal tab
Creating personal tab
You can edit any tab online and save it as your Personal.

You can edit, replace or remove any tab part or add personal notes – all changes will be seen only by you.

Personal tabs can be accessed anytime from any device, even offline.
Learn more »
comments
print report bad tab
8 comments total. Showing first comments.
+8 reply
sander.lammerant 10 Jul 12, 2017 02:41 PM

e|------2------------|
B|------2------------|
G|------0------------|
D|-------------------| x6
A|-------------------|
E|---3---------------|

e|------2------------|
B|------2------------|
G|------0------------|
D|-------------------| x2
A|-------------------|
E|---2---------------|

Is this part correct? It doesn't sound very nice on my guitar... thanks

+5 reply
kmi777 207 Jul 21, 2017 11:50 PM

i think it's

e|------3------------|
B|------3------------|
G|------0------------|
D|-------------------| x6
A|-------------------|
E|---3---------------|

e|------3------------|
B|------3------------|
G|------0------------|
D|-------------------| x2
A|-------------------|
E|---2---------------|

+1 reply
*SugarDown* 486 Jul 19, 2017 04:33 PM

its with cappo 1st freet

guest
You may want to rate the tab now too:
select rating
Wanna post a correction for this tab? Suggest correction