Oops, an error
Loading. Please wait.

One More Light Live tab

version 2
version 2

Whole song

  • This tab is based on the live performance (https:/... Show more
  • More accurate. Based on watching song played live.

Interactive

6,901 views 996 this week
1 commentread comment
1 2 3 4 5
x 7
add to favorites
×
Save as Personal and add changes to this tab that will be seen only by you. Learn more ›
×
You can save this tab as Personal to edit and correct it or add notes. All changes will be seen only by you. Learn more »
launch autoscroll
font size
0
reset
how to read this tab
guitar tuner
edit
Autoscroll
slow
fast
+/-
esc
set tempo
stop
Artist: Linkin Park
Song: One More Light
Tuning: Standard (EADGBE)
Capo: 1st fret

Tab by norsunkieli
Any feedback to norsunkieli@gmail.com

This is more or less the way Brad plays the song live. A pretty fun song to play and sing to.
Tabs made according to the performance at Jimmy Kimmel Live. Don't forget the capo!

/ = slide up

[Intro]

E||----7---7---7---7-----5---5---5---5-----7---7---7-------7-----------7---|
B||------------------------------------------------------------------------|
G||----0---0---0---0-----0---0---0---0-----0---0---0---7-------7---7-------|
D||--------------------------------------5---5---5---5---5---5---4---4-----|
A||--7---7---7---7-----3---3---3---3---------------------------------------|
E||------------------------------------------------------------------------|

                                                                  Should've...
E||----7---7---7---7-----5---5---5---5-----7---7---7---7---7---7---7---7---|
B||------------------------------------------------------------------------|
G||----0---0---0---0-----0---0---0---0-----0---0---0---0---0---0---0---0---|
D||--------------------------------------5---5---5---5---5---5---4---4-----|
A||--7---7---7---7-----3---3---3---3---------------------------------------|
E||------------------------------------------------------------------------|


[Verse 1]

The verse is the same as the intro, only the first part is repeated twice and the end is different:

  ...stayed
E||----7---7---7---7-----5---5---5---5-----7---7---7-------7-----------7---|
B||------------------------------------------------------------------------|
G||----0---0---0---0-----0---0---0---0-----0---0---0---7-------7---7-------|
D||--------------------------------------5---5---5---5---5---5---4---4-----|
A||--7---7---7---7-----3---3---3---3---------------------------------------|
E||------------------------------------------------------------------------|



E||----7---7---7---7-----5---5---5---5-----7---7---7-------7-----------7---|
B||------------------------------------------------------------------------|
G||----0---0---0---0-----0---0---0---0-----0---0---0---7-------7---7-------|
D||--------------------------------------5---5---5---5---5---5---4---4-----|
A||--7---7---7---7-----3---3---3---3---------------------------------------|
E||------------------------------------------------------------------------|



E||----7---7---7---7-----5---5---5---5-----7---7---7---7---7---7---7---7---|
B||------------------------------------------------------------------------|
G||----0---0---0---0-----0---0---0---0-----0---0---0---0---0---0---0---0---|
D||--------------------------------------5---5---5---5---5---5---4---4-----|
A||--7---7---7---7-----3---3---3---3---------------------------------------|
E||------------------------------------------------------------------------|


                                                         If they say...
E||----7---7---7---7-----5---5---5---5-----5---5---5---5---5---5---5---5---|
B||------------------------------------------------------------------------|
G||----0---0---0---0-----0---0---0---0-----0---0---0---0---0---0---0---0---|
D||------------------------------------------------------------------------|
A||--7---7---7---7-----3---3---3---3-----5---5---5---5---5---5---5---5-----|
E||------------------------------------------------------------------------|


[Chorus 1]

The chorus follows the same progression, leaving out the more complex part. It ends differently as well.

    ...light goes out
E||----7---7---7---7-----5---5---5---5-----7---7---7---7---7---7---7---7---|
B||------------------------------------------------------------------------|
G||----0---0---0---0-----0---0---0---0-----0---0---0---0---0---0---0---0---|
D||--------------------------------------5---5---5---5---5---5---4---4-----|
A||--7---7---7---7-----3---3---3---3---------------------------------------|
E||------------------------------------------------------------------------|


E||----7---7---7---7-----5---5---5---5-----7---7---7---7---7---7---7---7---|
B||------------------------------------------------------------------------|
G||----0---0---0---0-----0---0---0---0-----0---0---0---0---0---0---0---0---|
D||--------------------------------------5---5---5---5---5---5---4---4-----|
A||--7---7---7---7-----3---3---3---3---------------------------------------|
E||------------------------------------------------------------------------|

                     ...I do                                       The reminders...
E||----7---7---7---7-------------------------------------------------------|
B||----------------------0---0---0---0-----0---0---0---0---0---0---0---0---|
G||----0---0---0---0-----0---0---0---0-----0---0---0---0---0---0---0---0---|
D||------------------------------------------------------------------------|
A||--7---7---7---7---------------------------------------------------------|
E||--------------------5---5---5---5-----3---3---3---3---3---3---2---2-----|


[Verse 2]

               pull the floor...
E||----7---7---7---7-----5---5---5---5-----7---7---7-------7-----------7---|
B||------------------------------------------------------------------------|
G||----0---0---0---0-----0---0---0---0-----0---0---0---7-------7---7-------|
D||--------------------------------------5---5---5---5---5---5---4---4-----|
A||--7---7---7---7-----3---3---3---3---------------------------------------|
E||------------------------------------------------------------------------|



E||----7---7---7---7-----5---5---5---5-----7---7---7-------7-----------7---|
B||------------------------------------------------------------------------|
G||----0---0---0---0-----0---0---0---0-----0---0---0---7-------7---7-------|
D||--------------------------------------5---5---5---5---5---5---4---4-----|
A||--7---7---7---7-----3---3---3---3---------------------------------------|
E||------------------------------------------------------------------------|



E||----7---7---7---7-----5---5---5---5-----7---7---7---7---7---7---7---7---|
B||------------------------------------------------------------------------|
G||----0---0---0---0-----0---0---0---0-----0---0---0---0---0---0---0---0---|
D||--------------------------------------5---5---5---5---5---5---4---4-----|
A||--7---7---7---7-----3---3---3---3---------------------------------------|
E||------------------------------------------------------------------------|


                                                         If they say...
E||----7---7---7---7-----5---5---5---5-----5---5---5---5---5---5---5---5---|
B||------------------------------------------------------------------------|
G||----0---0---0---0-----0---0---0---0-----0---0---0---0---0---0---0---0---|
D||------------------------------------------------------------------------|
A||--7---7---7---7-----3---3---3---3-----5---5---5---5---5---5---5---5-----|
E||------------------------------------------------------------------------|


[Chorus 2]

The 2nd chorus is the same as the first one, with the difference of cutting out the last four beats
for the solo.


    ...light goes out
E||----7---7---7---7-----5---5---5---5-----7---7---7---7---7---7---7---7---|
B||------------------------------------------------------------------------|
G||----0---0---0---0-----0---0---0---0-----0---0---0---0---0---0---0---0---|
D||--------------------------------------5---5---5---5---5---5---4---4-----|
A||--7---7---7---7-----3---3---3---3---------------------------------------|
E||------------------------------------------------------------------------|


E||----7---7---7---7-----5---5---5---5-----7---7---7---7---7---7---7---7---|
B||------------------------------------------------------------------------|
G||----0---0---0---0-----0---0---0---0-----0---0---0---0---0---0---0---0---|
D||--------------------------------------5---5---5---5---5---5---4---4-----|
A||--7---7---7---7-----3---3---3---3---------------------------------------|
E||------------------------------------------------------------------------|

                     ...I do                             [Solo starts]
E||----7---7---7---7-------------------------------------------------------|
B||----------------------0---0---0---0-----0---0---0---0---0---0---0---0---|
G||----0---0---0---0-----0---0---0---0-----0---0---0---0---0---0---0---0---|
D||------------------------------------------------------------------------|
A||--7---7---7---7---------------------------------------------------------|
E||--------------------5---5---5---5-----3---3---3---3---3---3---2---2-----|


[Solo]

The solo is very simplistic. Personally I like to play the chorus
again in its place.


E||-----------------------------10-10-10-----------------------------------|
B||---12-12-12-12-10-10-8-8-8-8----------10-10-10-8-10-10-10-12-12-10------|
G||------------------------------------------------------------------------|
D||------------------------------------------------------------------------|
A||------------------------------------------------------------------------|
E||------------------------------------------------------------------------|


                                                  I do...
E||---------10-10-10------------------------------------10-10-10-----------|
B||---8-8-8----------10-10-10-8-10-10-10-12-12-10-8-8-8----------10-10-10--|
G||------------------------------------------------------------------------|
D||------------------------------------------------------------------------|
A||------------------------------------------------------------------------|
E||------------------------------------------------------------------------|

                                        If they say      Who cares if one more...
E||------------------------------------------------------------------------|
B||---8-10-10-10-12-12-8-10-10-10-8-10/12-12-8-10-10-10-12-/13-12-10-8-----|
G||------------------------------------------------------------------------|
D||------------------------------------------------------------------------|
A||------------------------------------------------------------------------|
E||------------------------------------------------------------------------|


[Chorus 3]

The final chorus is a bit different, playing the complex part every time. The guitar cuts out for the final
 "I do" but can be continued as well.


    ...light goes out
E||----7---7---7---7-----5---5---5---5-----7---7---7-------7-----------7---|
B||------------------------------------------------------------------------|
G||----0---0---0---0-----0---0---0---0-----0---0---0---7-------7---7-------|
D||--------------------------------------5---5---5---5---5---5---4---4-----|
A||--7---7---7---7-----3---3---3---3---------------------------------------|
E||------------------------------------------------------------------------|



E||----7---7---7---7-----5---5---5---5-----7---7---7-------7-----------7---|
B||------------------------------------------------------------------------|
G||----0---0---0---0-----0---0---0---0-----0---0---0---7-------7---7-------|
D||--------------------------------------5---5---5---5---5---5---4---4-----|
A||--7---7---7---7-----3---3---3---3---------------------------------------|
E||------------------------------------------------------------------------|


                     ...I do
E||----7---7---7---7-------------------------------------------------------|
B||----------------------0---0---0---0-----0---0---0---0---0---0---0---0---|
G||----0---0---0---0-----0---0---0---0-----0---0---0---0---0---0---0---0---|
D||------------------------------------------------------------------------|
A||--7---7---7---7---------------------------------------------------------|
E||--------------------5---5---5---5-----3---3---3---3---3---3---3---3-----|


    I do
E||------------------------------------------------------------------------|
B||------------------------------------------------------------------------|
G||------------------------------------------------------------------------|
D||------------------------------------------------------------------------|
A||------------------------------------------------------------------------|
E||------------------------------------------------------------------------|



Suggest correction
Creating personal tab
Creating personal tab
You can edit any tab online and save it as your Personal.

You can edit, replace or remove any tab part or add personal notes – all changes will be seen only by you.

Personal tabs can be accessed anytime from any device, even offline.
Learn more »
comments
print report bad tab
1 comment total.
0 reply
danisteif 10 May 29, 2017 04:16 AM

Perfectly Tabbed :-)

guest
You may want to rate the tab now too:
select rating
Wanna post a correction for this tab? Suggest correction