Oops, an error
Loading. Please wait.

One More Light tab

version 4
version 4

Whole song

  • This tab is based on the live performance (https:/... Show more
  • More accurate. Based on watching song played live.

Interactive

Video

1,078 views 78 this week
1 commentread comment
1 2 3 4 5
x 6
add to favorites
×
Save as Personal and add changes to this tab that will be seen only by you. Learn more ›
×
You can save this tab as Personal to edit and correct it or add notes. All changes will be seen only by you. Learn more »
launch autoscroll
font size
0
reset
how to read this tab
guitar tuner
edit
Autoscroll
slow
fast
+/-
esc
set tempo
stop
[Intro]

e|---------------|---------------|---------------|---------------|---------------|
B|---------------|---------------|---------------|---------------|---------------|
G|--0---0---0---0|--0---0---0---0|--0---0---0---0|--0---0---0---0|--0---0---0---0|
D|2---2---2---2--|---------------|---------------|---------------|---------------|
A|---------------|3---3---3---3--|---------------|---------------|---------------|
E|---------------|---------------|3---3---3---3--|3---3---2---2--|0---0---0---0--|

e|---------------|---------------|
B|---------------|---------------|
G|--0---0---0---0|--0---0---0---0|
D|---------------|---------------|
A|3---3---3---3--|---------------|
E|---------------|3---3---3---3--|


[Verse 1]
        F#            Em              Cadd9            G
e|---------------|---------------|---------------|---------------|
B|---------------|---------------|---------------|---------------|
G|--0---0---0---0|--0---0---0---0|--0---0---0---0|--0---0---0---0|
D|---------------|---------------|---------------|---------------|
A|---------------|---------------|3---3---3---3--|---------------|
E|3---3---2---2--|0---0---0---0--|---------------|3---3---3---3--|
            Should have stayed, were there signs I ignored?



        F#            Em              Cadd9            G
e|---------------|---------------|---------------|---------------|
B|---------------|---------------|---------------|---------------|
G|--0---0---0---0|--0---0---0---0|--0---0---0---0|--0---0---0---0|
D|---------------|---------------|---------------|---------------|
A|---------------|---------------|3---3---3---3--|---------------|
E|3---3---2---2--|0---0---0---0--|---------------|3---3---3---3--|
            Can I help you, not to hurt, anymore?


        F#            Em              Cadd9            G
e|---------------|---------------|---------------|---------------|
B|---------------|---------------|---------------|---------------|
G|--0---0---0---0|--0---0---0---0|--0---0---0---0|--0---0---0---0|
D|---------------|---------------|---------------|---------------|
A|---------------|---------------|3---3---3---3--|---------------|
E|3---3---2---2--|0---0---0---0--|---------------|3---3---3---3--|
            We saw brilliance, when the world, was asleep


        F#            Em              Cadd9            D
e|---------------|---------------|---------------|---------------|
B|---------------|---------------|---------------|---------------|
G|--0---0---0---0|--0---0---0---0|--0---0---0---0|--2---2---2---2|
D|---------------|---------------|---------------|0---0---0---0--|
A|---------------|---------------|3---3---3---3--|---------------|
E|3---3---2---2--|0---0---0---0--|---------------|---------------|
          There are things that we can have, but can't keep if they say



[Chorus 1]
         D               Em            Cadd9             G
e|---------------|---------------|---------------|---------------|
B|---------------|---------------|---------------|---------------|
G|--2---2---2---2|--0---0---0---0|--0---0---0---0|--0---0---0---0|
D|0---0---0---0--|---------------|---------------|---------------|
A|---------------|---------------|3---3---3---3--|---------------|
E|---------------|0---0---0---0--|---------------|3---3---3---3--|
Who cares if one more light goes out?  In a sky of a million stars, it flickers flickers.

    

         F#               Em            Cadd9             G
e|---------------|---------------|---------------|---------------|
B|---------------|---------------|---------------|---------------|
G|--0---0---0---0|--0---0---0---0|--0---0---0---0|--0---0---0---0|
D|---------------|---------------|---------------|---------------|
A|---------------|---------------|3---3---3---3--|---------------|
E|3---3---2---2--|0---0---0---0--|---------------|3---3---3---3--|
Who cares when someones time runs out? If a moment is all we are, we're quicker, quicker.



         F#               Em            Am             G
e|---------------|---------------|---------------|---------------|
B|---------------|---------------|---------------|---------------|
G|--0---0---0---0|--0---0---0---0|--2---2---2---2|--0---0---0---0|
D|---------------|---------------|---------------|---------------|
A|---------------|---------------|0---0---0---0--|---------------|
E|3---3---2---2--|0---0---0---0--|---------------|3---3---3---3--|
           Who cares if one more light goes out? Well I..... do.



[Verse 2]

        F#            Em              Cadd9            G
e|---------------|---------------|---------------|---------------|
B|---------------|---------------|---------------|---------------|
G|--0---0---0---0|--0---0---0---0|--0---0---0---0|--0---0---0---0|
D|---------------|---------------|---------------|---------------|
A|---------------|---------------|3---3---3---3--|---------------|
E|3---3---2---2--|0---0---0---0--|---------------|3---3---3---3--|
            The reminders, pull the floor from your feet.



        F#            Em              Cadd9            G
e|---------------|---------------|---------------|---------------|
B|---------------|---------------|---------------|---------------|
G|--0---0---0---0|--0---0---0---0|--0---0---0---0|--0---0---0---0|
D|---------------|---------------|---------------|---------------|
A|---------------|---------------|3---3---3---3--|---------------|
E|3---3---2---2--|0---0---0---0--|---------------|3---3---3---3--|
            In the kitchen, one more chair than you need.


        F#            Em              Cadd9            G
e|---------------|---------------|---------------|---------------|
B|---------------|---------------|---------------|---------------|
G|--0---0---0---0|--0---0---0---0|--0---0---0---0|--0---0---0---0|
D|---------------|---------------|---------------|---------------|
A|---------------|---------------|3---3---3---3--|---------------|
E|3---3---2---2--|0---0---0---0--|---------------|3---3---3---3--|
           Oh and you're angry, and you should be, its not fair.


        F#            Em              Cadd9            D
e|---------------|---------------|---------------|---------------|
B|---------------|---------------|---------------|---------------|
G|--0---0---0---0|--0---0---0---0|--0---0---0---0|--2---2---2---2|
D|---------------|---------------|---------------|0---0---0---0--|
A|---------------|---------------|3---3---3---3--|---------------|
E|3---3---2---2--|0---0---0---0--|---------------|---------------|
       Just 'cause you can't see it, doesn't mean it, isn't there if they say.


[Chorus 2]
         D               Em            Cadd9             G
e|---------------|---------------|---------------|---------------|
B|---------------|---------------|---------------|---------------|
G|--2---2---2---2|--0---0---0---0|--0---0---0---0|--0---0---0---0|
D|0---0---0---0--|---------------|---------------|---------------|
A|---------------|---------------|3---3---3---3--|---------------|
E|---------------|0---0---0---0--|---------------|3---3---3---3--|
Who cares if one more light goes out?  In a sky of a million stars, it flickers flickers.

    

         F#               Em            Cadd9             G
e|---------------|---------------|---------------|---------------|
B|---------------|---------------|---------------|---------------|
G|--0---0---0---0|--0---0---0---0|--0---0---0---0|--0---0---0---0|
D|---------------|---------------|---------------|---------------|
A|---------------|---------------|3---3---3---3--|---------------|
E|3---3---2---2--|0---0---0---0--|---------------|3---3---3---3--|
Who cares when someones time runs out? If a moment is all we are, we're quicker, quicker.



         F#               Em            Am             G
e|---------------|---------------|---------------|---------------|
B|---------------|---------------|---------------|---------------|
G|--0---0---0---0|--0---0---0---0|--2---2---2---2|--0---0---0---0|
D|---------------|---------------|---------------|---------------|
A|---------------|---------------|0---0---0---0--|---------------|
E|3---3---2---2--|0---0---0---0--|---------------|3---3---3---3--|
           Who cares if one more light goes out? Well I..... do.



[Bridge]
        Em              Cadd9            G               F#
e|---------------|---------------|---------------|---------------|
B|---------------|---------------|---------------|---------------|
G|--0---0---0---0|--0---0---0---0|--0---0---0---0|--0---0---0---0|
D|---------------|---------------|---------------|---------------|
A|---------------|3---3---3---3--|---------------|---------------|
E|0---0---0---0--|---------------|3---3---3---3--|3---3---2---2--|


        Em              Cadd9            D
e|---------------|---------------|---------------|
B|---------------|---------------|---------------|
G|--0---0---0---0|--0---0---0---0|--2---2---2---2|
D|---------------|---------------|0---0---0---0--|
A|---------------|3---3---3---3--|---------------|
E|0---0---0---0--|---------------|---------------|


[Outro]
         D               Em            Cadd9             G
e|---------------|---------------|---------------|---------------|
B|---------------|---------------|---------------|---------------|
G|--2---2---2---2|--0---0---0---0|--0---0---0---0|--0---0---0---0|
D|0---0---0---0--|---------------|---------------|---------------|
A|---------------|---------------|3---3---3---3--|---------------|
E|---------------|0---0---0---0--|---------------|3---3---3---3--|
Who cares if one more light goes out?  In a sky of a million stars, it flickers flickers.

    

         F#               Em            Cadd9             G
e|---------------|---------------|---------------|---------------|
B|---------------|---------------|---------------|---------------|
G|--0---0---0---0|--0---0---0---0|--0---0---0---0|--0---0---0---0|
D|---------------|---------------|---------------|---------------|
A|---------------|---------------|3---3---3---3--|---------------|
E|3---3---2---2--|0---0---0---0--|---------------|3---3---3---3--|
Who cares when someones time runs out? If a moment is all we are, we're quicker, quicker.



         F#               Em            Am             G
e|---------------|---------------|---------------|---------------|
B|---------------|---------------|---------------|---------------|
G|--0---0---0---0|--0---0---0---0|--2---2---2---2|--0---0---0---0|
D|---------------|---------------|---------------|---------------|
A|---------------|---------------|0---0---0---0--|---------------|
E|3---3---2---2--|0---0---0---0--|---------------|3---3---3---3--|
           Who cares if one more light goes out? Well I..... do.



        G
e|-------------3-|
B|-------------3-|
G|--0---0---0--0-|
D|-------------0-|
A|-------------2-|
E|3---3---3----3-|
  Well I..... do.


************************************

            
            
Suggest correction
Creating personal tab
Creating personal tab
You can edit any tab online and save it as your Personal.

You can edit, replace or remove any tab part or add personal notes – all changes will be seen only by you.

Personal tabs can be accessed anytime from any device, even offline.
Learn more »
comments
print report bad tab
1 comment total.
0 reply
TFKfan365 52 5 days ago

love it ❤

guest
You may want to rate the tab now too:
select rating
Wanna post a correction for this tab? Suggest correction